Taking Back Sunday - Divine Intervention Chords & Tabs

 

Divine Intervention Chords & Tabs

Taking Back Sunday Chords & Tabs

Version: 3 Type: Tab

Divine Intervention Tab

This is meant to be down tuned slightly but to save the effort I worked it out with 
tuning which sounds just as good.


You can work out the strumming; Iíve just marked where the chord changes in relation to 
lyrics.


Intro/verse:

 Despondent, distracted, youíre vicious and romantic

e |-----------------------------------------------------|
B |-----------------------------------------------------|
G |-----------------------------------------------------|
D |--6------------8--------------5-------------6--------|
A |--6------------8--------------6-------------6--------|
E |--4------------6--------------3-------------4--------|

Repeats for each line:
These are a few of my favourite things.
All of those flavours and this is what you choose:
Past the blues, past the blues, And on to something new


Chorus:


     Something realÖ and make it timeless

e |--------------------------------------------|
B |--------------------------------------------|
G |--------------------------------------------|
D |-------------11-----------------8-----------|
A |-------------11-----------------8-----------|
E |-------------9------------------6-----------|

  An act of god and nothing else will be accepted
[ Tab from: https://www.guitartabs.cc/tabs/t/taking_back_sunday/divine_intervention_tab_ver_3.html ]
e |--------------------------------------------|
B |--------------------------------------------|
G |--------------------------------------------|
D |----------6---------------5--------------3--|
A |----------6---------------6--------------3--|
E |----------4---------------3--------------1--|

So if your calling me outÖ then count me out

e |--------------------------------------------|
B |--------------------------------------------|
G |--------------------------------------------|
D |---------------------6665--------------6----|
A |---------------------6666--------------6----|
E |---------------------4443--------------4----|
                               (pause)

This is really on a xylophone or something but I tabbed it anyway

e |-----------------------------------------|
B |--------8-9-------8-9-11-----------------|
G |-------------5-8-----------6-(5)---------|
D |-----------------------------------------| x2
A |-----------------------------------------|
E |-----------------------------------------|


2nd verse

Yeah, we're stubborn and melodramatic, A real class act.
You see, I know a few of your favourite things.
Five in the morning and all comes out pouring, Love
out the same way in.

Chorus x2

Then he starts humming... thatís the same chords as verses

Iíve never tabbed before so I might be doing this really wrong and Iíd appreciate 
and ratings etc.