Takida - Another Day Chords & Tabs

 

Another Day Chords & Tabs

Takida Chords & Tabs

Version: 1 Type: Tab

Another Day Tab

   
                                takida - Another day


tabed by Tony Larsson email: rock_boy90@hotmail.com

h hammer


INTRO
e|--------------------------------------------------|
b|--------------------------------------------------|
g|-----0-----0----0-------0-------------------------|
d|---------2--------0-0-----0-0---------------------|same as verse
a|---2----------------------------------------------|
e|-0-----0------3-------2---------------------------|

e|--------------------------------------------------|
b|--9-7-5h7-5-----5h7--9-7-5h7----------------------|
g|------------5h7--------------5--------------------|
d|--------------------------------------------------|
a|--------------------------------------------------|
e|--------------------------------------------------|


CHORUS:  hey now,were,,,     | another day the feeling stay the same
e|---------------------------|---------------------------------------|
b|---------------------------|---------------------------------------|
g|---------------7777--------|---------------------------------------|
d|-9999--55555---7777--77777-|--5555555555---------------------------|
a|-9999--55555---5555--77777-|--5555555555---------------------------|
e|-7777--33333---------55555-|--3333333333---------------------------|
[ Tab from: https://www.guitartabs.cc/tabs/t/takida/another_day_tab.html ]
verse:
e|--------------------------------------------------|
b|--------------------------------------------------|
g|-----0-----0----0-------0-------------------------|
d|---------2--------0-0-----0-0---------------------|
a|---2----------------------------------------------|
e|-0-----0------3-------2---------------------------|

another mission they search for light..| fall in , fall out 
e|-------------------------------------|------------------------|
b|-------------------------------------|------------------------|
g|-------------------------------------|------------------------|
d|-9999--77777-------------------------|--99--7777777-----------|
a|-9999--77777-keep pay thi until-----|--99--7777777-----------|
e|-7777--55555-------------------------|--77--5555555-----------|

 it's getting closer a touch is getting closer....
e|---------------------------|
b|---------------------------|
g|---------------7777--------|
d|-9999--55555---7777--77777-|
a|-9999--55555---5555--77777-|
e|-7777--33333---------55555-|

solo
e|--------------------------------------------------|
b|--------------------------------------------------|
g|--------------------------------------------------|
d|--------------------------------------------------|
a|--------------------------------------------------|
e|--------------------------------------------------|

and the rest is the same i have no energy to do the solo =)
perhaps u an tab it by yourself :)u


tabed by Tony Larsson email: rock_boy90@hotmail.com