Tad - Jinx Chords & Tabs

 

Jinx Chords & Tabs

Tad Chords & Tabs

Version: 1 Type: Tab

Jinx Tab

   
-------------------------------------------------------------------------------
                                  JINX  Tad
-------------------------------------------------------------------------------

Tabbed by: brian_s
Email: branimir.sremec@kc.t-com.hr


INTRO:
e---------------------------------------------------------|
B---------------------------------------------------------|
G---------------------------------------------------------|  4x
D---------------------------2-2-2-2-2--5-5-5-5------------|
A---0h2-2-2-2---0h2-2-2-2---0-0-0-0-0--3-3-3-3--3-3-3-3---|
D---0h2-2-2-2---0h2-2-2-2-----------------------3-3-3-3---|


VERSE:
1st guitar:
e---------------------------------------------------------|
B---------------------------------------------------------|
G---------------------------------------------------------|  4x
D---------------------------2-2-2-2-2--5-5-5-5------------|
A---0h2-2-2-2---0h2-2-2-2---0-0-0-0-0--3-3-3-3--3-3-3-3---|
D---0h2-2-2-2---0h2-2-2-2-----------------------3-3-3-3---|
[ Tab from: https://www.guitartabs.cc/tabs/t/tad/jinx_tab.html ]
2nd guitar:
e---------------------------------------------------------|
B---------------------------------------------------------|
G---------------------------2-2-2-2-2--5-5-5-5------------|  2x
D---------------------------0-0-0-0-0--3-3-3-3--3-3-3-3---|
A---5h7-7-7-7---5h7-7-7-7-----------------------3-3-3-3---|
D---------------------------------------------------------|


CHORUS:
1st guitar
e---------------------------------------------------------|
B---------------------------------------------------------|
G---------------------------------------------------------|  2x
D---------------------------2-2-2-2-2--5-5-5-5------------|
A---0h2-2-2-2---0h2-2-2-2---0-0-0-0-0--3-3-3-3--3-3-3-3---|
D---0h2-2-2-2---0h2-2-2-2-----------------------3-3-3-3---|

2nd guitar
e-------------------------------------------------------------|
B-------------------------------------------------------------|
G---------------------------5h7-7-77-77-7--7h9-9-9-7h9-----|  2x
D---7h9-9-9-9---7h9-9-9-9---------------------------------9---|
A-------------------------------------------------------------|
D-------------------------------------------------------------|


Play verse riff 2x


VERSE:
Play verse riffs 4x


CHORUS:
Play chorus riffs 4x


Play verse riff 2x


VERSE:
Play verse riffs 4x


CHORUS:
Play chorus riffs 8x



h   =  hammer-on