System Of A Down - Pictures Chords & Tabs

 

Pictures Chords & Tabs

System Of A Down Chords & Tabs

Version: 3 Type: Bass Tab

Pictures Bass Tab

   
Band: System of a down
Song: Pictures
Album: Steal this album!
Tuning: F C G C

Intro x16
F|---------------------------------|
C|-1-0-1-3-------------------------|
G|---------------------------------|
C|---------------------------------|

Verse
F|---------------------------------|
C|---------------------------------| x8
G|---------------------------------|
C|-1-01-3-------------------------|

F|---------------------------------|
C|---------------------------------| x2
G|---------------------------------|
C|-1-0-1-3-4302--1-0-1-3-4305------|

Chorus
F|---------------------------------|
C|---------------------------------|
G|---------------------------------|
C|-0000000-------------------------|

F|-------------------------------------------|
C|-------------------------------------------|
G|-------------------------------------------|
C|-1-0-1-3-4302-0000000--1-0-1-3-4305-0000000|
[ Tab from: https://www.guitartabs.cc/tabs/s/system_of_a_down/pictures_btab_ver_3.html ]
F|---------------------------------|
C|---------------------------------|
G|---------------------------------|
C|-1-0-1-3-4302--------------------|

F|---------------------------------|
C|---------------------------------| x4
G|---------------------------------|
C|-0000000-------------------------|

Verse 2
F|---------------------------------|
C|----54-87-------54-87------------|
G|--5-------65-65-------65-6-------|
C|---------------------------------|

Chorus
Verse 2

Bridge
F|---------------------------------|
C|---------------------------------| x2
G|---------------------------------|
C|--1-0--4-3--7-6--4-3-------------|

F|------------------------------------------|
C|------------------------------------------|
G|------------------------------------------|
C|-110000000-443333333-776666666-44333333---|

F|------------------------------------------|
C|------------------------------------------|
G|----------------------------------------5-|
C|-110000000-443333333-776666666-44333333---|

Chorus

End
F|-------------------------------|
C|----54-87----------------------|
G|--5-------6--------------------|
C|------------0000000------------|