Switchfoot - Stars Chords & Tabs

 

Stars Chords & Tabs

Switchfoot Chords & Tabs

Version: 4 Type: Tab

Stars Tab

   
intro: guitar 2
e------------------------------------------------------------------------>
B------------------------------------------------------------------------>
G------------------------------------------------------------------------>
D-0-12-0-11-12-00-16-000-14-00-17-21-19-0-12-0-11-12-00-16-000-140141414->
A-0-12-0-12-12-00-16-000-14-00-17-21-19-0-12-0-12-12-00-16-000-140141414->
D-0-12-0-11-12-00-16-000-14-00-17-21-19-0-12-0-11-12-00-16-000-140141414->
(play a total of 4x)

intro: guitar 1
e------------------------------------------------------------------->
B------------------------------------------------------------------->
G------------------------------------------------------------------->
D--------4---------------4---------------4---------------4---------->
A----45------7--45---45------7-777---45------7--45---45------7-777-->
D-020--04-045-02--020--04-045-----020--04-045-02--020--04-045------->

verse 1: guitar 1
e------------------------------------------------------------------------->
B--------------------------3-3-33-3-3-3-3-33-3-3----------3-3-33-3-2-222-->
G-----------------7-7-77-7-2-2-22-2-2-5-5-55-5-5-7-7-77-7-2-2-22-2-2-222-->
D-0-000-0-00-0-00-7-7-77-7-0-0-00-0-0-5-5-55-5-5-7-7-77-7-2-2-22-2-2-222-->
A-0-000-0-00-0-00-5-5-55-5-0-0-00-0-0-3-3-33-3-3-5-5-55-5-0-0-00-0-0-000-->
D-0-000-0-00-0-00-5-5-55-5-0-0-00-0-0------------5-5-55-5----------------->
Maybe Iíve been the problem Maybe Iím the one to blame But even when I turn it off and 
myself The outcome feels the same Iíve been thinkiní maybe

verse 1: guitar 2 (guitar 1 repeat verse 1 riff)
e------------------------------------------------------------------------->
B---------------------0003--------00001111111111-------------------------->
G-22222222222222222222----22222222---------------00000000----------------->
D---------------------------------------------------------22222222222222-->
A------------------------------------------------------------------------->
D------------------------------------------------------------------------->
Iíve been partly cloudy Maybe Iím the chance of rain and Maybe Iím overcast and Maybe 
my luckís washed down the drain Iíve been thinkiní Ďbout

verse 1: guitar 1
e----------------------------->
B----------------------------->
G--------2~~----4~~----5~~---->
D-5~~----2~~----4~~----5~~---->
A-5~~----0~~----2~~----3~~---->
D-5~~------------------------->
Everyone Everyone you look so lonely

chorus: guitar 1
/e-------------------------------------------------------------------------->|\
|B-------------------------------------------------------------------------->|
|G----------------------555555----------------------------------------2~~--->|
|D-000000000-5555555555-555555-555555--------4-------555555555-222222-2~~--->|
|A-000000000-5555555555-333333-555555----45------7777555555555-222222-0~~--->|
|D-000000000-5555555555--------555555-020--04-045----555555555-222222------->|
|                                                                          |
|chorus: guitar 2                                                          |
|e-------------------------------------------------------------------------->|
|B-------------------------------------------------------------------------->|
|G-------------------------------------------------------------------------->|
|D-444220----444220-----4--2-0-----------------------444220----4--2-0------->|
|A-------000-------000-------------------------------------000-------------->|
\D-----------------------------555555---------------------------------5----->|~->/
But when I look at the Stars when I look at the Stars when I look at the Stars I see 
else when I look at the Stars the Stars I feel like myself

chorus: guitar 1
e---------------------------------->
B---------------------------------->
G---------------------------------->
D--------4---------------4--------->
A----45------7--45---45------7-777->
D-020--04-045-02--020--04-045------>
[ Tab from: https://www.guitartabs.cc/tabs/s/switchfoot/stars_tab_ver_4.html ]
verse 2: guitar 2 (guitar 1 repeat verse 1 riff twice) (repeat this measure)
e------------------------------------------------------------------------->
B---------------------0003--------00001111111111-------------------------->
G-22222222222222222222----22222222---------------00000000----------------->
D---------------------------------------------------------2222222222222--->
A------------------------------------------------------------------------->
D------------------------------------------------------------------------->
Stars looking at a planet watching entropy and pain And maybe start to wonder how the 
in our lives could pass as sane Iíve been thinkiní Ďbout the meaning of resistance Of a 
beyond my own and suddenly the infinite and penitent begin to look like home Iíve been thinkiní Ďbout

verse 2: guitar 1
e----------------------------->
B----------------------------->
G--------2~~----4~~----5~~---->
D-5~~----2~~----4~~----5~~---->
A-5~~----0~~----2~~----3~~---->
D-5~~------------------------->
Everyone Everyone you look so empty

chorus 2: guitar 1
/e-------------------------------------------------------------------------->|\
|B-------------------------------------------------------------------------->|
|G----------------------555555----------------------------------------2~~--->|
|D-000000000-5555555555-555555-555555--------4-------555555555-222222-2~~--->|
|A-000000000-5555555555-333333-555555----45------7777555555555-222222-0~~--->|
|D-000000000-5555555555--------555555-020--04-045----555555555-222222------->|
|                                                                          |
|chorus 2: guitar 2                                                        |
|e-------------------------------------------------------------------------->|
|B-------------------------------------------------------------------------->|
|G-------------------------------------------------------------------------->|
|D-444220----444220-000-4--2-0-----------------------444220----4--2-0------->|
|A-------000-----------------------------------------------000-------------->|
\D-----------------------------555555---------------------------------5----->|~->/
But when I look at the Stars when I look at the Stars when I look at the Stars I see 
else But when I look at the Stars the Stars I feel like myself Yeah!

bridge: guitar 1
e-------------------------------------------------------------------------->
B-------------------------------------------------------------------------->
G-------------------------------------------------------------------------->
D--------4---------------4---------5555-44-777--------4--------5555-44-777->
A----45------7--45---45------7-777-5555-44-777----45------7777-5555-44-777->
D-020--04-045-02--020--04-045------5555-44-777-020--04-045-----5555-44-777->
the Stars the Stars

bridge: guitar 1
/e--------------------------------------------------3~~---->|\
|B--------------------------------------------------3~~---->|
|G--------2~~-------------------------2~~----4~~----5~~---->|
|D-5~~----2~~----4~~----5~~----5~~----2~~----4~~----5~~---->|
|A-5~~----0~~----4~~----5~~----5~~----0~~----2~~----3~~---->|
|D-5~~-----------4~~----5~~----5~~------------------------->|
|                                                         |
|bridge: guitar 2                                         |
|e----0~~----9~~-----2-------0~~--0~~---0~~------2--3~~---->|
|B----------------------0~~-------------------------3~~---->|
|G--------------------------------------------------------->|
|D--------------------------------------------------------->|
|A--------------------------------------------------------->|
\D--------------------------------------------------------->|/
Everyone Everyone we feel so lonely Everyone yeah Everyone we feel so empty

But when I look at the Stars when I look at the Stars when I look at the

chorus 3: guitar 1
e-33333333-----------------------------------------0~~->
B-33333333-88888888-----------------88888888-5~~---2~~->
G-55555555-77777777-----------------77777777-4~~---2~~->
D-55555555-55555555--------4--------55555555-2~~---2~~->
A-33333333-55555555----45------7777-55555555-2~~---0~~->
D----------55555555-020--04-045-----55555555-2~~------->
Stars I feel like myself when I look at the Stars the Stars I see someone

outro: guitar 1
/e-------------------------------------------------------------------------->|\
|B-------------------------------------------------------------------------->|
|G-------------------------------------------------------------------------->|
|D--------4---------------4---------------4---------------4-----------0~~--->|
|A----45------7--45---45------7-777---45------7--45---45------7--4-5--0~~--->|
|D-020--04-045-02--020--04-045-----020--04-045-02--020--04-045-02-----0~~--->|
|                                                                          |
|outro: guitar 2                                                           |
|e-----------------------------------------000----555-333---5-3333-2~-2~~--->|
|B--------------------------------------------333---------3----------------->|
|G---------------------------------444-222---------------------------------->|
|D-------------------------------------------------------------------------->|
|A-------------------------------------------------------------------------->|
\D-------------------------------------------------------------------------->|/