Sum 41 - Some Say Chords & Tabs

 

Some Say Chords & Tabs

Sum 41 Chords & Tabs

Version: 1 Type: Bass Tab

Some Say Bass Tab

   
An excellent song. Come in at 0:12.

Drop D Tuning: D,A,D,G
Slide Up: /
Hold Note: ~

G----------------------------------------------------------------------------|I
D-----------------------------------------------11111111---------------------|I
A--11-1-3/44444444-----------------1/444444444------------------------------|I
D-------------------11-1-3/44444444----------------------4444444444444444----|I

Chorus
G----------------------------------------------------------|I
D----------------------------------------------------------|I
A--1111------4444----------------4444----------------1----|I
D--------4444------6666-1111-4444------6666-1111-4444------|I

Bridge
G--------------------------------------------------------------------|
D--------------------------------------------------------------------|
A--------4444-6666-1111------4444-6666-1111------4444-6666-1111------|
E---4444----------------4444----------------4444----------------4444-|


G-----------3333-----------|
D--------------------------|
A-4444-6666----------------|
E----------------4-4-4-6---|

[ Tab from: https://www.guitartabs.cc/tabs/s/sum_41/some_say_btab.html ]
Verse #2
G----------------------------------------------------------------------------|I
D----------------------------------------------------------------------------|I
A--11-1-3/44444444-----------------11-1-3/444444444-------------------------|I
D-------------------11-1-3/44444444------------------11-1-3/4~----44444444---|I


Chorus #2
G------------------------------------|I
D------------------------------------|I
A--1111------4444-------------------|I
D--------4444------6666-1111-4444----|I


Ending
G-----------------------------------------------------|I
D-----------------------------------------------------|I
A--1111------4444------4-6-1111------4444-6666-4~----|I
D--------4444------6666----------4444-----------------|I


Verse         x1
Chorus        x1
Goes through verse once like at beginning of song, the bass comes in 2nd time through.
Verse         x1 For this verse, play  F# for one more bar than written.
Chorus        x1
Bridge        x1
Goes through verse once like at beginning of song, the bass comes in 2nd time through.
Verse #2      x1
Chorus #2     x1
Chorus        x1
Ending        x1