Sufjan Stevens - Chicago Acoustic Chords & Tabs

 

Chicago Acoustic Chords & Tabs

Sufjan Stevens Chords & Tabs

Version: 1 Type: Tab

Chicago Acoustic Tab

Tabbed by:  entspeak
Email:  dismyjunk@hotmail.com

This is the main guitar riff from the acoustic version of Chicago from the Avalanche 
 There are additional guitars playing over this.  I think they are playing variations on 
or it could be a delay of some sort or both.  I have also included the solo guitar.


Tuning:  Standard
(Capo on the 9th Fret. Played relative to capo.)

E-|---------------------------|---------------------------|---------------------------|
B-|-----------3-----------1---|-----------1-----------1---|-----------1-----------1---|
G-|-----2-----------2---------|-----2-----------2---------|-----0-----------0---------|
D-|--0-----0-----0-----0------|--2-----2-----2-----2------|--------2-----------0------|
A-|---------------------------|---------------------------|--3-----------3------------|
E-|---------------------------|---------------------------|---------------------------|

[ Tab from: https://www.guitartabs.cc/tabs/s/sufjan_stevens/chicago_acoustic_tab.html ]
E-|---------------------------|--|
B-|-----------0-----------0---|--|
G-|-----0-----------0---------|--|
D-|--------0-----------0------|--|
A-|--------------2------------|--|
E-|--3------------------------|--|

The Guitar solo  also Capo on the 9th Fret

E-|------|---------------------------|---------------------------|---------------------------|
B-|------|---------------------------|---------------------------|---------------------------|
G-|------|---------------------------|---------------------------|---------------------------|
D-|------|---------------------------|---------------------------|---------------------------|
A-|---2--|--4------------------------|-----------3h2h3-----2-----|---------------------------|
E-|------|---------------------------|---------------------------|--3------------------------|


E-|---------------------------|--|
B-|---------------------------|--|
G-|---------------------------|--|
D-|--4------------------------|--|
A-|---------------------(2)---|--| (for repeat)
E-|---------------------------|--|