Stone Temple Pilots - Plush Chords & Tabs

 

Plush Chords & Tabs

Stone Temple Pilots Chords & Tabs

Version: 7 Type: Tab

Plush Tab

   
#----------------------------------PLEASE NOTE---------------------------------#
#This file is the author's own work and represents their interpretation of the #
#song. You may only use this file for private study, scholarship, or research. #
#------------------------------------------------------------------------------##

                                      PLUSH
                       As recorded by Stone Temple Pilots
                           (From the 1992 Album CORE)

Gtr I (E A D G B E) - 'Gtr.I'
Gtr II (E A D G B E) - 'Gtr.II'
Gtr III (E A D G B E) - 'Gtr.III'

   Intro
    Moderately Slow  Q=78
    G5    G/Bb      C5/A  G                G5    Bbm6       C5/A  G/D
   4/4                                                      2/4
    Gtrs I, II
    E E E E +H       E E E E +Q   S S E  3x E E E E +H       E E E E
||--3-3---3-(3)----|-3-3---3-(3)--3-3-3--||-3-3---3-(3)----|-3-3---3-|
||o-3-3---2-(2)----|-1-1---0-(0)--0-1-2-o||-3-3---2-(2)----|-1-1---0-|
||--0-0---3-(3)----|-2-2---0-(0)--0-0-0--||-0-0---3-(3)----|-2-2---0-|
||-----------------|---------------------||----------------|-------0-|
||o----------------|--------------------o||----------------|---------|
||-----------------|---------------------||----------------|---------|


               1st Verse
                G5        D/F#        F             C/E         Ebmaj7/Bb
 4/4
  +W            E E S S S S E E S S S S   E E S S S S E E S S S S
|-(3)--------||-3-3-x-x-x-2-2-2-x-x-x-1-|-1-1-x-x-x-0-0-0-x-x-x-3-|
|-(0)--------||-3-3-x-x-x-3-3-3-x-x-x-1-|-1-1-x-x-x-1-1-1-x-x-x-3-|
|-(0)--------||-0-0-x-x-x-2-2-2-x-x-x-2-|-2-2-x-x-x-0-0-0-x-x-x-3-|
|-(0)--------||-0-0-x-x-x-0-0-0-x-x-x-3-|-3-3-x-x-x-2-2-2-x-x-x-1-|
|------------||-----x-x-x-------x-x-x-3-|-3-3-x-x-x-3-3-3-x-x-x-1-|
|------------||-3-3-x-x-x-2-2-2-x-x-x-1-|-1-1-x-x-x-0-0-0-x-x-x---|


  Ebmaj7/Bb       F5        G5        D/F#        F             C/E         Ebmaj7/Bb
  E E S S S S E E S S S S   E E S S S S E E S S S S   E E S S S S E E S S S S
|-3-3-x-x-x-3-3-3---------|-3-3-x-x-x-2-2-2-x-x-x-1-|-1-1-x-x-x-0-0-0-x-x-x-3--|
|-3-3-x-x-x-3-3-3---------|-3-3-x-x-x-3-3-3-x-x-x-1-|-1-1-x-x-x-1-1-1-x-x-x-3--|
|-3-3-x-x-x-3-3-3---------|-0-0-x-x-x-2-2-2-x-x-x-2-|-2-2-x-x-x-0-0-0-x-x-x-3--|
|-1-1-x-x-x-1-1-1-3-3-3-3-|-0-0-x-x-x-0-0-0-x-x-x-3-|-3-3-x-x-x-2-2-2-x-x-x-1--|
|-1-1-x-x-x-1-1-1-3-3-3-3-|-----x-x-x-------x-x-x-3-|-3-3-x-x-x-3-3-3-x-x-x-1--|
|-----x-x-x-------1-1-1-1-|-3-3-x-x-x-2-2-2-x-x-x-1-|-1-1-x-x-x-0-0-0-x-x-x----|


                            Pre-Chorus
                             D5          G/B   Em7/C
  E E S S S S E E S S S S    E S S S S S S +E  E +S  S S S
|-3-3-x-x-x-3-3-3---------||-------------3-(3)-0-(0)-------|
|-3-3-x-x-x-3-3-3---------||-3---3---3---3-(3)-3-(3)-3-3---|
|-3-3-x-x-x-3-3-3---------||-2-----------0-(0)-0-(0)-0-0h2-|
|-1-1-x-x-x-1-1-1-3-3-3-3-||-0-0---------------------------|
|-1-1-x-x-x-1-1-1-3-3-3-3-||-------3---3-2-(2)-3-(3)-------|
|-----x-x-x-------1-1-1-1-||-------------------------------|


  D5/A        G/B   Em7/C
  E S S S S S S +E  E +S  S S S
|-------------3-(3)-0-(0)--------|
|-3---3---3---3-(3)-3-(3)-3-3----|
|-2-----------0-(0)-0-(0)-0-0h2--|
|-0-0----------------------------|
|-0-----3---3-2-(2)-3-(3)--------|
|--------------------------------|


  D5          G/B   Em7/C
  E S S S S S S +E  E +S  S S S
|-------------3-(3)-0-(0)-------|
|-3---3---3---3-(3)-3-(3)-3-3---|
|-2-----------0-(0)-0-(0)-0-0h2-|
|-0-0---------------------------|
|-------3---3-2-(2)-3-(3)-------|
|-------------------------------|


                                  Chorus
  D5/A        G/B   Em7/C          Ebmaj7/Bb             F
  E S S S S S S +E  E +S  S S S    E E S S S S E E S S S S
|-------------3-(3)-0-(0)-------||-3-3-x-x-x-3-3-3-x-x-x-1--|
|-3---3---3---3-(3)-3-(3)-3-3---||-3-3-x-x-x-3-3-3-x-x-x-1--|
|-2-----------0-(0)-0-(0)-0-0h2-||-3-3-x-x-x-3-3-3-x-x-x-2--|
|-0-0---------------------------||-1-1-x-x-x-1-1-1-x-x-x-3--|
|-0-----3---3-2-(2)-3-(3)-------||-1-1-x-x-x-1-1-1-x-x-x-3--|
|-------------------------------||-----x-x-x-------x-x-x-1--|


  F                     Ebmaj7/Bb                 F
  E E S S S S E E S S S S   E E S S S S E E S S S S
|-1-1-x-x-x-1-1-1-x-x-x-3-|-3-3-x-x-x-3-3-3-x-x-x-1-|
|-1-1-x-x-x-1-1-1-x-x-x-3-|-3-3-x-x-x-3-3-3-x-x-x-1-|
|-2-2-x-x-x-2-2-2-x-x-x-3-|-3-3-x-x-x-3-3-3-x-x-x-2-|
|-3-3-x-x-x-3-3-3-x-x-x-1-|-1-1-x-x-x-1-1-1-x-x-x-3-|
|-3-3-x-x-x-3-3-3-x-x-x-1-|-1-1-x-x-x-1-1-1-x-x-x-3-|
|-1-1-x-x-x-1-1-1-x-x-x---|-----x-x-x-------x-x-x-1-|


  E E S S S S E S S S S S S
|-1-1-x-x-x-1-1-x-x-x-1-1-1-|
|-1-1-x-x-x-1-1-x-x-x-1-1-1-|
|-2-2-x-x-x-2-2-x-x-x-2-2-2-|
|-3-3-x-x-x-3-3-x-x-x-3-3-3-|
|-3-3-x-x-x-3-3-x-x-x-3-3-3-|
|-1-1-x-x-x-1-1-x-x-x-1-1-1-|


  Ebmaj7/Bb             F                         Ebmaj7/Bb                 F
  E E S S S S E E S S S S   E E S S S S E E S S S S   E E S S S S E E S S S S
|-3-3-x-x-x-3-3-3-x-x-x-1-|-1-1-x-x-x-1-1-1-x-x-x-3-|-3-3-x-x-x-3-3-3-x-x-x-1--|
|-3-3-x-x-x-3-3-3-x-x-x-1-|-1-1-x-x-x-1-1-1-x-x-x-3-|-3-3-x-x-x-3-3-3-x-x-x-1--|
|-3-3-x-x-x-3-3-3-x-x-x-2-|-2-2-x-x-x-2-2-2-x-x-x-3-|-3-3-x-x-x-3-3-3-x-x-x-2--|
|-1-1-x-x-x-1-1-1-x-x-x-3-|-3-3-x-x-x-3-3-3-x-x-x-1-|-1-1-x-x-x-1-1-1-x-x-x-3--|
|-1-1-x-x-x-1-1-1-x-x-x-3-|-3-3-x-x-x-3-3-3-x-x-x-1-|-1-1-x-x-x-1-1-1-x-x-x-3--|
|-----x-x-x-------x-x-x-1-|-1-1-x-x-x-1-1-1-x-x-x---|-----x-x-x-------x-x-x-1--|


  F                          G5    Bbm6       C5/A  G
  E E S S S S E E S S S S    E E E E +H       E E E E +Q   S S E
|-1-1-x-x-x-1-1-1-1-1-1-1-||-3-3---3-(3)----|-3-3---3-(3)--3-3-3-|
|-1-1-x-x-x-1-1-1-1-1-1-1-||-3-3---2-(2)----|-1-1---0-(0)--0-1-2-|
|-2-2-x-x-x-2-2-2-2-2-2-2-||-0-0---3-(3)----|-2-2---0-(0)--0-0-0-|
|-3-3-x-x-x-3-3-3-3-3-3-3-||----------------|--------------------|
|-3-3-x-x-x-3-3-3-3-3-3-3-||----------------|--------------------|
|-1-1-x-x-x-1-1-1-1-1-1-1-||----------------|--------------------|


                                          2nd Verse
  G5    Bbm6       C5/A  G/D               G5        D/F#        F
                  2/4       4/4
  E E E E +H       E E E E   +W            E E S S S S E E S S S S
|-3-3---3-(3)----|-3-3---3-|-(3)--------||-3-3-x-x-x-2-2-2-x-x-x-1--|
|-3-3---2-(2)----|-1-1---0-|-(0)--------||-3-3-x-x-x-3-3-3-x-x-x-1--|
|-0-0---3-(3)----|-2-2---0-|-(0)--------||-0-0-x-x-x-2-2-2-x-x-x-2--|
|----------------|-------0-|-(0)--------||-0-0-x-x-x-0-0-0-x-x-x-3--|
|----------------|---------|------------||-----x-x-x-------x-x-x-3--|
|----------------|---------|------------||-3-3-x-x-x-2-2-2-x-x-x-1--|


  F         C/E         Ebmaj7/Bb           F5        G5        D/F#        F
  E E S S S S E E S S S S   E E S S S S E E S S S S   E E S S S S E E S S S S
|-1-1-x-x-x-0-0-0-x-x-x-3-|-3-3-x-x-x-3-3-3---------|-3-3-x-x-x-2-2-2-x-x-x-1--|
|-1-1-x-x-x-1-1-1-x-x-x-3-|-3-3-x-x-x-3-3-3---------|-3-3-x-x-x-3-3-3-x-x-x-1--|
|-2-2-x-x-x-0-0-0-x-x-x-3-|-3-3-x-x-x-3-3-3---------|-0-0-x-x-x-2-2-2-x-x-x-2--|
|-3-3-x-x-x-2-2-2-x-x-x-1-|-1-1-x-x-x-1-1-1-3-3-3-3-|-0-0-x-x-x-0-0-0-x-x-x-3--|
|-3-3-x-x-x-3-3-3-x-x-x-1-|-1-1-x-x-x-1-1-1-3-3-3-3-|-----x-x-x-------x-x-x-3--|
|-1-1-x-x-x-0-0-0-x-x-x---|-----x-x-x-------1-1-1-1-|-3-3-x-x-x-2-2-2-x-x-x-1--|


  F         C/E         Ebmaj7/Bb           F5
  E E S S S S E E S S S S   E E S S S S E E S S S S
|-1-1-x-x-x-0-0-0-x-x-x-3-|-3-3-x-x-x-3-3-3---------||
|-1-1-x-x-x-1-1-1-x-x-x-3-|-3-3-x-x-x-3-3-3---------||
|-2-2-x-x-x-0-0-0-x-x-x-3-|-3-3-x-x-x-3-3-3---------||
|-3-3-x-x-x-2-2-2-x-x-x-1-|-1-1-x-x-x-1-1-1-3-3-3-3-||
|-3-3-x-x-x-3-3-3-x-x-x-1-|-1-1-x-x-x-1-1-1-3-3-3-3-||
|-1-1-x-x-x-0-0-0-x-x-x---|-----x-x-x-------1-1-1-1-||


 Pre-Chorus II
  D5          G/B   Em7/C
  E S S S S S S +E  E +S  S S S
|-------------3-(3)-0-(0)-------|
|-3---3---3---3-(3)-3-(3)-3-3---|
|-2-----------0-(0)-0-(0)-0-0h2-|
|-0-0---------------------------|
|-------3---3-2-(2)-3-(3)-------|
|-------------------------------|


  D5/A        G/B   Em7/C         D5          G/B   Em7/C
  E S S S S S S +E  E +S  S S S   E S S S S S S +E  E +S  S S S
|-------------3-(3)-0-(0)-------|-------------3-(3)-0-(0)-------|
|-3---3---3---3-(3)-3-(3)-3-3---|-3---3---3---3-(3)-3-(3)-3-3---|
|-2-----------0-(0)-0-(0)-0-0h2-|-2-----------0-(0)-0-(0)-0-0h2-|
|-0-0---------------------------|-0-0---------------------------|
|-0-----3---3-2-(2)-3-(3)-------|-------3---3-2-(2)-3-(3)-------|
|-------------------------------|-------------------------------|


  D5/A        G/B   Em7/C
  E S S S S S S +E  E +S  S S S
|-------------3-(3)-0-(0)-------||
|-3---3---3---3-(3)-3-(3)-3-3---||
|-2-----------0-(0)-0-(0)-0-0h2-||
|-0-0---------------------------||
|-0-----3---3-2-(2)-3-(3)-------||
|-------------------------------||


 Chorus II and III
  $
  Ebmaj7/Bb             F                         Ebmaj7/Bb                 F
  E E S S S S E E S S S S   E E S S S S E E S S S S   E E S S S S E E S S S S
|-3-3-x-x-x-3-3-3-x-x-x-1-|-1-1-x-x-x-1-1-1-x-x-x-3-|-3-3-x-x-x-3-3-3-x-x-x-1--|
|-3-3-x-x-x-3-3-3-x-x-x-1-|-1-1-x-x-x-1-1-1-x-x-x-3-|-3-3-x-x-x-3-3-3-x-x-x-1--|
|-3-3-x-x-x-3-3-3-x-x-x-2-|-2-2-x-x-x-2-2-2-x-x-x-3-|-3-3-x-x-x-3-3-3-x-x-x-2--|
|-1-1-x-x-x-1-1-1-x-x-x-3-|-3-3-x-x-x-3-3-3-x-x-x-1-|-1-1-x-x-x-1-1-1-x-x-x-3--|
|-1-1-x-x-x-1-1-1-x-x-x-3-|-3-3-x-x-x-3-3-3-x-x-x-1-|-1-1-x-x-x-1-1-1-x-x-x-3--|
|-----x-x-x-------x-x-x-1-|-1-1-x-x-x-1-1-1-x-x-x---|-----x-x-x-------x-x-x-1--|

[ Tab from: https://www.guitartabs.cc/tabs/s/stone_temple_pilots/plush_tab_ver_7.html ]
  F
  E E S S S S E S S S S S S
|-1-1-x-x-x-1-1-x-x-x-1-1-1-|
|-1-1-x-x-x-1-1-x-x-x-1-1-1-|
|-2-2-x-x-x-2-2-x-x-x-2-2-2-|
|-3-3-x-x-x-3-3-x-x-x-3-3-3-|
|-3-3-x-x-x-3-3-x-x-x-3-3-3-|
|-1-1-x-x-x-1-1-x-x-x-1-1-1-|


  Ebmaj7/Bb             F                         Ebmaj7/Bb
  E E S S S S E E S S S S   E E S S S S E E S S S S
|-3-3-x-x-x-3-3-3-x-x-x-1-|-1-1-x-x-x-1-1-1-x-x-x-3-|
|-3-3-x-x-x-3-3-3-x-x-x-1-|-1-1-x-x-x-1-1-1-x-x-x-3-|
|-3-3-x-x-x-3-3-3-x-x-x-2-|-2-2-x-x-x-2-2-2-x-x-x-3-|
|-1-1-x-x-x-1-1-1-x-x-x-3-|-3-3-x-x-x-3-3-3-x-x-x-1-|
|-1-1-x-x-x-1-1-1-x-x-x-3-|-3-3-x-x-x-3-3-3-x-x-x-1-|
|-----x-x-x-------x-x-x-1-|-1-1-x-x-x-1-1-1-x-x-x---|


  Ebmaj7/Bb             F
  Gtr I
  E E S S S S E E S S S S   E E E. S S S E S S S S
|-3-3-x-x-x-3-3-3-x-x-x-1-|-1-1-1--1-1-1-1-1-1-1-1-||
|-3-3-x-x-x-3-3-3-x-x-x-1-|-1-1-1--1-1-1-1-1-1-1-1-||
|-3-3-x-x-x-3-3-3-x-x-x-2-|-2-2-2--2-2-2-2-2-2-2-2-||
|-1-1-x-x-x-1-1-1-x-x-x-3-|-3-3-3--3-3-3-3-3-3-3-3-||
|-1-1-x-x-x-1-1-1-x-x-x-3-|-3-3-3--3-3-3-3-3-3-3-3-||
|-----x-x-x-------x-x-x-1-|-1-1-1--1-1-1-1-1-1-1-1-||
|
| Gtr II
| E E S S S S E E S S S S   E E E. S S S E S S S S
|-3-3-x-x-x-3-3-3-x-x-x-1-|-1-1-1--1-1-1-1-1-1-1-1-||
|-3-3-x-x-x-3-3-3-x-x-x-1-|-1-1-1--1-1-1-1-1-1-1-1-||
|-3-3-x-x-x-3-3-3-x-x-x-2-|-2-2-2--2-2-2-2-2-2-2-2-||
|-1-1-x-x-x-1-1-1-x-x-x-3-|-3-3-3--3-3-3-3-3-3-3-3-||
|-1-1-x-x-x-1-1-1-x-x-x-3-|-3-3-3--3-3-3-3-3-3-3-3-||
|-----x-x-x-------x-x-x-1-|-1-1-1--1-1-1-1-1-1-1-1-||


 Bridge
  G5              F5
  Gtr III
  S S S S S S S S S S S S S E S
|-------------x-----------x------|
|-------------x-----------x------|
|-------------x-----------x------|
|-------------x-----------x------|
|-5-5-5-5-5---x-5-3-3-3---x-3-3--|
|-3-3-3-3-3---x-3-1-1-1---x-1-1--|
|
| S S S S S S S S S S S S S E S
|--------------------------------|
|-------3-------------3----------|
|-0-2-4---4-2---2---4---4---4-4--|
|-------------5---3---------3-3--|
|--------------------------------|
|--------------------------------|


  C/E           D5Eb5       D5            G5              F5
  S S S S S S S S S S S   S  S  S E       S S S S S S S S S S S S S E S
|-------------x-------------------------|-------------x-----------x-----|
|-------------x-------------------------|-------------x-----------x-----|
|-------------x-------------------------|-------------x-----------x-----|
|-------------x-7-8-8-8---8--7--7-7-----|-------------x-----------x-----|
|-3-3-3-3-3---x-5-6-6-6---6--5--5-5-----|-5-5-5-5-5---x-5-3-3-3---x-3-3-|
|-0-0-0-0-0---x-------------------------|-3-3-3-3-3---x-3-1-1-1---x-1-1-|
|
| S S E   S S E   S S S a S +S  E   a S   S S S S S S S S S S S S S E S
|---------------------------------------|-------------------------------|
|-----1---1-----------1-1s3-(3)-1-------|-------3-------------3---------|
|---0-------0-------0---------------1s2-|-0-2-3---3---3-----3-------3-3-|
|-2-----------2---1---------------------|-----------5---5-3-----3---3-3-|
|---------------------------------------|-------------------------------|
|---------------------------------------|-------------------------------|


  C/E           D5Eb5       D5
  S S S S S S S S S S S   S  S  S E
|-------------x--------------------------|
|-------------x--------------------------|
|-------------x--------------------------|
|-------------x-7-8-8-8---8--7--7-7------|
|-3-3-3-3-3---x-5-6-6-6---6--5--5-5------|
|-0-0-0-0-0---x--------------------------|
|
| S S E   S S E   S S S a S +S  E   a S
|----------------------------------------|
|-----1---1-----------1-1s3-(3)-1--------|
|---0-------0-------0---------------1s2--|
|-2-----------2---1----------------------|
|----------------------------------------|
|----------------------------------------|


  G5              F5
  Gtr II
  S S S S S S S S S S S S S E S
|-------------------------------|
|-------3-------------3---------|
|-0-2-4---4-2---2---4-------4-4-|
|-------------5---3-----3---3-3-|
|-------------------------------|
|-------------------------------|
|
| Gtr III
| S S S S S S S S S S S S S E S
|-------------x-----------x-----|
|-------------x-----------x-----|
|-------------x-----------x-----|
|-------------x-----------x-----|
|-5-5-5-5-5---x-5-3-3-3---x-3-3-|
|-3-3-3-3-3---x-3-1-1-1---x-1-1-|


                               To Coda
  C/E           D5Eb5       D5            G5              F5
  S S E   S S E   S S S a S +S  E   a S   S S S S S S E   S S S S S E S
|---------------------------------------|-------------------------------|
|-----1---1-----------1-1s3-(3)-1-------|-------3-------------3---------|
|---0-------0-------0---------------1s2-|-0-2-3---3---------3-------3-3-|
|-2-----------2---1---------------------|-----------5-5---3-----3---3-3-|
|---------------------------------------|-------------------------------|
|---------------------------------------|-------------------------------|
|
| S S S S S S S S S S S   S  S  S E       S S S S S S S S S S S S S E S
|-------------x-------------------------|-------------x-----------x-----|
|-------------x-------------------------|-------------x-----------x-----|
|-------------x-------------------------|-------------x-----------x-----|
|-------------x-7-8-8-8---8--7--7-7-----|-------------x-----------x-----|
|-3-3-3-3-3---x-5-6-6-6---6--5--5-5-----|-5-5-5-5-5---x-5-3-3-3---x-3-3-|
|-0-0-0-0-0---x-------------------------|-3-3-3-3-3---x-3-1-1-1---x-1-1-|


  C/E           D5Eb5D5      G5    Bbm6       C5/A  G
                            Gtr I
  S S E   S S S S Q  Q       E E E E +H       E E E E +Q   S S E   3x
|-----------------------||---3-3---3-(3)----|-3-3---3-(3)--3-3-3---||
|-----1---1-----1-3--1--||o--3-3---2-(2)----|-1-1---0-(0)---------o||
|---0-------0-----3--2--||---0-0---3-(3)----|-2-2---0-(0)--0-0-0---||
|-2-----------2---------||------------------|----------------------||
|-----------------------||o-----------------|---------------------o||
|-----------------------||------------------|----------------------||
|
|                           Gtr II
| S S S S S S S S Q  Q       E E E E +H       E E E E +Q   S S E   3x
|-------------x---------||---3-3---3-(3)----|-3-3---3-(3)----------||
|-------------x---------||o--3-3---2-(2)----|-1-1---0-(0)--0-1-2--o||
|-------------x---------||---0-0---3-(3)----|-2-2---0-(0)--0-------||
|-------------x-7-8--7--||------------------|----------------------||
|-3-3-3-3-3---x-5-6--5--||o-----------------|---------------------o||
|-0-0-0-0-0---x---------||------------------|----------------------||


                     D.S. al Coda       &
                   C5/A  G/D
 4/4              2/4       4/4
  E E E E +H       E E E E   +W
|-3-3---3-(3)----|-3-3---3-|-(3)--------||
|-3-3---2-(2)----|-1-1---0-|-(0)--------||
|-0-0---3-(3)----|-2-2---0-|-(0)--------||
|----------------|-------0-|-(0)--------||
|----------------|---------|------------||
|----------------|---------|------------||
|
| E E E E +H       E E E E   +W
|-3-3---3-(3)----|-3-3---3-|-(3)--------||
|-3-3---2-(2)----|-1-1---0-|-(0)--------||
|-0-0---3-(3)----|-2-2---0-|-(0)--------||
|----------------|-------0-|-(0)--------||
|----------------|---------|------------||
|----------------|---------|------------||


  G5              F5              C/E           D5Eb5D5
  Gtr III
  S S S S S S S S S S S S S E S   S S S S S S S S Q  Q
|-------------x-----------x-----|-------------x-----------||
|-------------x-----------x-----|-------------x-----------||
|-------------x-----------x-----|-------------x-----------||
|-------------x-----------x-----|-------------x-7-8--7----||
|-5-5-5-5-5---x-5-3-3-3---x-3-3-|-3-3-3-3-3---x-5-6--5----||
|-3-3-3-3-3---x-3-1-1-1---x-1-1-|-0-0-0-0-0---x-----------||
|
| Gtr II
| S S S S S S S S S S S S S E S   S S E   S S S S Q  Q
|-------------------------------|-------------------------||
|-------3-------------3---------|-----1---1-----1-3--1----||
|-0-2-3---3---3-----3-------3-3-|---0-------0-----3--2----||
|-----------5---5-3-----3---3-3-|-2-----------2-----------||
|-------------------------------|-------------------------||
|-------------------------------|-------------------------||


   Outro
    G5    Bbm6       C5/A  G                G5    Bbm6       C5/A  G/D
                                                            2/4       4/4
    Gtrs I, II
    E E E E +H       E E E E +Q   S S E  3x E E E E +H       E E E E   +W
||--3-3---3-(3)----|-3-3---3-(3)--3-3-3--||-3-3---3-(3)----|-3-3---3-|-(3)----*|
||o-3-3---2-(2)----|-1-1---0-(0)--0-1-2-o||-3-3---2-(2)----|-1-1---0-|-(0)----*|
||--0-0---3-(3)----|-2-2---0-(0)--0-0-0--||-0-0---3-(3)----|-2-2---0-|-(0)----*|
||-----------------|---------------------||----------------|-------0-|-(0)----*|
||o----------------|--------------------o||----------------|---------|--------*|
||-----------------|---------------------||----------------|---------|--------*|


Duration Legend
---------------
W - whole; H - half; Q - quarter; E - 8th; S - 16th; T - 32nd; X - 64th; a - acciaccatura
+ - note tied to previous; . - note dotted; .. - note double dotted
Uncapitalized letters represent notes that are staccato (1/2 duration)
Irregular groupings are notated above the duration line
Duration letters will always appear directly above the note/fret number it represents the
duration for.  Duration letters with no fret number below them represent rests.  Multi-
bar rests are notated in the form Wxn, where n is the number of bars to rest for.  Low
melody durations appear below the staff

Tablature Legend
----------------
 h   - hammer-on
 p   - pull-off
 b   - bend
 pb  - pre-bend
 r   - bend release (if no number after the r, then release immediately)
 /\  - slide into or out of (from/to "nowhere")
 s   - legato slide
 S   - shift slide
  - natural harmonic
[n]  - artificial harmonic
n(n) - tapped harmonic
 ~   - vibrato
 tr  - trill
 T   - tap
 TP  - trem. picking
 PM  - palm muting
\n/  - tremolo bar dip; n = amount to dip
 \n  - tremolo bar down
 n/  - tremolo bar up
/n\  - tremolo bar inverted dip
 =   - hold bend; also acts as connecting device for hammers/pulls
 <>  - volume swell (louder/softer)
 x   - on rhythm slash represents muted slash
 o   - on rhythm slash represents single note slash

Misc Legend
-----------
 |  - bar
||  - double bar
||o - repeat start
o|| - repeat end
*|  - double bar (ending)
 :  - bar (freetime)
 $  - Segno
 &  - Coda
Tempo markers -  = BPM(8/16=s8/s16), where s8 = swing 8ths, s16 = swing 16th