Stone Temple Pilots - Meatplow Chords & Tabs

 

Meatplow Chords & Tabs

Stone Temple Pilots Chords & Tabs

Version: 1 Type: Bass Tab

Meatplow Bass Tab

-------------------------------------------------------------------------------
			 MEATPLOW  - Stone Temple Pilots
-------------------------------------------------------------------------------

Tabbed By : James Ryan
e-mail: james_ryan@atlanticbb.net

Tuning: Standard

verse, intro, and solo
G|--------------------------------------|
D|--------------------------------------|
A|-------03----------------------------|
E|-0--3--------2--2--2-0-2---2--0--2----|
[ Tab from: https://www.guitartabs.cc/tabs/s/stone_temple_pilots/meatplow_btab.html ]
pre chorus
G|------------------------------------------------|
D|------------------------------------------------|
A|-2-2----2-----2---2-2-2-2--2--3--3--3--3--------|
E|--------------------------------------------x-x-|

G|------------------------------------------------|
D|------------------------------------------------|
A|------------------------------------------------|
E|-1-x-x--1-x-x--1-1-x-x--1-x-x--1-x-x--1-1-x-x---|

chorus
G|------------------------------------------------------------------------|
D|------------------------------------------------------------------------|
A|--5-----------------------------------------------3--3--3--3------------|
E|-----5--5---5--5--5--5--5--5---5--5\-1--1--3--3--------------3--3--3--3-|

outro
G|--------------------------|
D|--------------------------|
A|--------3-----------------|
E|--3--5-------2----x--1----|