Stone Temple Pilots - Between The Lines Chords & Tabs

 

Between The Lines Chords & Tabs

Stone Temple Pilots Chords & Tabs

Version: 1 Type: Bass Tab

Between The Lines Bass Tab

   
Stone Temple Pilots - "Between The Lines"
New single from Self-Titled 2010 Album
Bass Guitar - Standard Tuning 
tabbed by jjhand




Intro - play 2x
G|------------------------|
D|------------------------|
A|-3--3-----3--3-----3----|
E|-------3--------3-------|



Verse - play 8x
G|------------------------|
D|------3-----3--5--3-----|
A|-5-------5-----------5--|
E|------------------------|

"Lovely disguise, read between the lines
You rock the magic plane with no abbreviation
Free, what you sell what you bought
But there ainít no magic pen to get back what you lost"






PreChorus - 

G|-------------------------|----------------------|
D|-------------------------|------3-----3/5--7----|
A|-3--3-----3--3-----3--5--|-5-------5------------|
E|-------5--------5--------|----------------------|

"I like it when we talk about love
 

G|-------------------------|-----------------------|
D|-10-10----10-10----10-12-|-/12---10--------------|
A|-------12-------12-------|------------12-10------|
E|-------------------------|------------------13\--|

I like it when you talk about love
 

G|-------------------------|----------------------|
D|-------------------------|------3-----3/5--7----|
A|-3--3-----3--3-----3--5--|-5-------5------------|
E|-------5--------5--------|----------------------|
You always were my favorite drug"




Prechorus End Riff
G|-------------------------|
D|-10-10----10-10----10----|
A|-------12-------12----12-|
E|-------------------------|
  "Even when we used to take ..."






Chorus - play 4x, repeat lyrics too
   D5            G5         F5            C5
G|------------------------|------------------------|
D|------------------------|------------------------|
A|-5----5-----------------|---------------3--3-----|
E|---------------3--3-----|-1----1--------------3--|

"Drugs...                  Even when we used to take"


Chorus Ending
G|------------------------|------------------------|
D|------------------------|/10-10----10-10----10~--|
A|-3--3-----3--3-----3----|-------12-------12------|
E|-------3--------3-------|------------------------|




Verse 2 - Same as verse 1
[ Tab from: https://www.guitartabs.cc/tabs/s/stone_temple_pilots/between_the_lines_btab.html ]
Lyrics:
"Penguins dont fly Crocodile sunday smile
Really like to fish but dont like superficial people
Shoe store heard it all before
From pearly whites to pearly gates What do we have to argue about"



Play PreChorus Again

Play Chorus again 








(1:31) Bridge - play 3x
G|-------------------------|------------------------|
D|-------------------------|------------------------|
A|-0----0---------5--5\3---|-3----3--------------0--|
E|-------------------------|---------------3--3-----|


End Bridge
G|-------------------------|-----------12-10--------|
D|-------------------------|------/10--------13-10--|
A|-0----0---------5--5\3---|-3----------------------|
E|-------------------------|------------------------|






(1:45) Dean's Solo
G|------------------------|------------------------|
D|------------------------|------------------------|
A|-5----5-----------------|---------------3--3-----|
E|---------------3--3-----|-1----1--------------3--|


G|------------------------|-------------------------|
D|------------------------|------/12-10----10-------|
A|-5----5-----------------|-------------12----12-10-|
E|---------------3--3-----|-1-----------------------|


G|------------------------|------------------------|
D|------------------------|------------------------|
A|-5----5-----------------|---------------3--3-----|
E|---------------3--3-----|-1----1--------------3--|


G|------------------------|------------------------|
D|------------------------|------------------------|
A|-5----5-----------------|---------------3--3-----|
E|---------------3--3-----|-1----1--------------3--|


G|------------------------|------------------------|
D|------------------------|/10-10----10-10----10~--|
A|-3--3-----3--3-----3----|-------12-------12------|
E|-------3--------3-------|------------------------|



Rest for nearly 4 bars then slide at 2:09

G|------------------------|
D|------------------------|
A|------------------------|
E|-----------------/10\---|


Play Verse Riff & Prechorus again

Play Chorus again



Ending 
G|------------------------|------------------------|----------|
D|------------------------|------------------------|----------|
A|-3--3-----3--3-----3----|-3--3-----3--3-----3----|-5\-------|
E|-------3--------3-------|-------3--------3-------|----------|




Key:
| /   slide up
| \   slide down
| h   hammer-on
| p   pull-off
| ~   vibrato