Steve Earle - Feel Alright Chords & Tabs

 

Feel Alright Chords & Tabs

Steve Earle Chords & Tabs

Version: 1 Type: Chords

Feel Alright Chords

   
Feel Alright	Steve Earle

I've tabbed the lick that he uses throughout. I think its close. Also see below for the 
forms, he leaves the high G for most of them.

Great song, season 2 of The Wire used it for the closing montage.

e|-----3-3---------3-3---------3-3---------3-3-------|
B|-----3-3---------3-3---------3-3---------3-3-------|
G|-----0-0---------0-0---------0-0---------0-0-------|
D|-----0-0-3-2-0---0-0-3-2-0---0-0-3-2-0---0-0-3-2-0-|
A|-----2-----------2-----------2-----------2---------|
E|---3-3---------3-3---------3-3---------3-3---------|


G
I was born my papaís son
  C                   F       C  G
A wandering eye and a smokiní gun
G
Now some of you whoíve lived through me
      C              F     C        G
Would lock me up and throw away the key
G
Or just find a place to hide away
    C                   F    C    G
And hope that Iíll just go away,  huh
[ Tab from: https://www.guitartabs.cc/tabs/s/steve_earle/feel_alright_crd.html ]
G             Em    D
I feel alright
C                G
I feel alright tonight
G             Em    D
I feel alright
C                G
I feel alright tonight

Now I bring you precious contraband
And ancient tales from distant lands
Of conquerors and concubines
And conjurers from darker times
Of betrayal and conspiracy
Sacrilege and heresy

Iíve got everything you want and need
Your darkest fear your fondest dreams
Ask you questions tell you lies
Criticize and sympathize
Well be careful what you wish for friend
ĎCause Iíve been to hell and now Iím back again

	G
E---|---|-x-|---|---|
B---|---|-x-|---|---|
G---|---|---|---|---|
D---|---|---|---|---|
A---|-x-|---|---|---|
E---|---|-x-|---|---|


	D
E---|-x-|---|---|---|
B---|---|-x-|---|---|
G---|-x-|---|---|---|
D---|---|---|---|---|
A---|---|---|---|---|
E---|-x-|---|---|---|


	C
E---|---|-x-|---|---|
B-x-|---|---|---|---|
G---|---|---|---|---|
D---|-x-|---|---|---|
A---|---|-x-|---|---|
E---|---|---|---|---|

	F
E---|---|-x-|---|---|
B-x-|---|---|---|---|
G---|-x-|---|---|---|
D---|---|-x-|---|---|
A---|---|---|---|---|
E---|---|---|---|---|