Stereophonics - Thousand Trees Chords & Tabs

 

Thousand Trees Chords & Tabs

Stereophonics Chords & Tabs

Version: 1 Type: Bass Tab

Thousand Trees Bass Tab

   
---------------------------------------------------------------------------
			     A THOUSAND TREES - STEREOPHONICS
---------------------------------------------------------------------------

Tabbed By : ADAM S
e-mail: 

Tuning: standard

INTRO

G|-----------------------|
D|-----------------------|
A|------0--0-2-3---------|
E|-3--3------------------|

VERSE

G|----------------------------|
D|----------------------------|
A|---------0-0-0-0-2-3--------|
E|-3-3-3-3--------------------|


BRIDGE
[ Tab from: https://www.guitartabs.cc/tabs/s/stereophonics/thousand_trees_btab.html ]
G|----------------------------------|
D|----------------------------------|
A|-0-----------3-----0--0--543------|
E|--------1--------------------1--3-|

CHORUS

G|------------------------------|
D|------------------------------|
A|---------0-0-0-0-22-3---------|
E|-3-3-3-3----------------------|

VERSE

CHORUS

OUTRO BRIDGE X4

G|-----------------------------------|
D|-0-0-0-0-0-0-0---------------------|
A|---------------3----------3-3-3-3--|
E|----------------2-2-2-2-2----------|

OUTRO VERSE

G|-------------------------|
D|-------------------------|
A|------0----2----3--------|
E|-3-----------------------|

CHORUS till end and then let the C ring out on the final note.


NOTE: Iíve tried to make the gaps reflect the timings in the song, but itís easy 
enough to pick up.