Stephen Speaks - Out Of My League Chords & Tabs

 

Out Of My League Chords & Tabs

Stephen Speaks Chords & Tabs

Version: 1 Type: Tab

Out Of My League Tab

   
Tabbed by: JOEL MARQUEZ


	Hi guys, try this tab itís very easy and Iím very sure of the 
notes in the intro. But try to listen to the song first. Ok!


Standard Tuning: e-b-g-d-a-e

Intro:
[ Tab from: https://www.guitartabs.cc/tabs/s/stephen_speaks/out_of_my_league_tab.html ]
e|-----8--7-5-3-------------|------8-7-5-3----5---7/8-7-5--------|
b|------------------3--5-3--|-------------------5----------------|
g|----10------------5-----5-|-----10-----------------------------|
d|--10-------------5--------|---10-------------------------------|
a|-8--------------3---------|--8---------------------------------|
e|--------------------------|-----------------5------------------|

e|-----8--7-5-3-----------|--------------------------------|
b|----------------3--5-3--|-------5-3----------------------|
g|----10----------5-----5-|-----5-----5------5-------------|
d|--10-----------5--------|---3------------3------2--------|
a|-8------------3---------|---------------3----------------|
e|------------------------|--------------------------------|

 gandang intro diba?

Hi sa mga ASHTIGINS!! Hi din kay Jeng..