Star Wars - Imperial March Chords & Tabs

 

Imperial March Chords & Tabs

Star Wars Chords & Tabs

Version: 1 Type: Bass Tab

Imperial March Bass Tab

-----------------------------------------------------------------------------
			     Imperial March Bass Tab  Star Wars
-----------------------------------------------------------------------------

Tabbed By: Nelson 
e-mail: njk1996@aol.com

Tuning: Standard

G|-------------------|
D|-5-5-55555---------| \/!_!
A|-----------666-----| /\  !
E|-------------------|

G|-------------------|
D|-5-5-5---8-5---8-5-| 
A|-------6-----6-----|
E|-------------------|

G|-7-7-7-8-----------|   
D|---------8-4---8-5-|
A|-------------6-----|
E|-------------------|
[ Tab from: https://www.guitartabs.cc/tabs/s/star_wars/imperial_march_btab.html ]
G|-12-0-0-12-11-10-989----|
D|------------------------|
A|------------------------|
E|------------------------|

G|---6-5-4-323-------|
D|-6-------------4---|
A|-------------6-----|
E|-------------------|

G|---------------7---|
D|---4--8--5--8------|
A|-6-----------------|
E|-------------------|

G|-12-0-0-12-11-10-989----|
D|------------------------|
A|------------------------|
E|------------------------|

G|---6-5-4-323-------|
D|-6-------------4---|
A|-------------6-----|
E|-------------------|

G|-------------------|
D|---8-5---8-5-------|
A|-6-----6-----------|
E|-------------------|