Staind - Everything Changes Chords & Tabs

 

Everything Changes Chords & Tabs

Staind Chords & Tabs

Version: 5 Type: Tab

Everything Changes Tab

Guitar I= Electric
Tuning

E|--------------||
B|--------------||
G|--------------||
D|--------------||
A|--------------||
D|--------------||


Guitar I - Intro/Riff 1 - Clean
E|----0-4-7-0-------0---7-0-------7-0---------5-4-0-----0---5-0-------||
B|--0---------0---0---0-----0---0-----0---0-----------0---0-----0---0-||
G|--------------------------------------------------------------------||
D|--------------------------------------------------6-------------6---||
A|--------------7-------------7---------7-----------------------------||
D|--------------------------------------------------------------------||

E|-5-0---------4-0-------0---4-0-------4-0---------5-4----5-4-----5-4-||
B|-----0---0-------0---0---0-----0---0-----0---0------5------5-------5||
G|-------------------1-------------1---------1------------------------||
D|-------6------------------------------------------------------------||
A|--------------------------------------------------------------------||
D|--------------------------------------------------------------------||

 Guitar I - Chorus - Light Distortion
E|--------------||
B|--------------|| Figure out the strumming
G|--1-----6-----|| 
D|--2--7--6--7--|| 
A|--2--7--4--7--||
D|-----7-----7--||

 Guitar I - Riff 1 - Clean
E|--------7-0-------0---7-0-------7-0---------5-4-0-----0---5-0-------||
B|------------0---0---0-----0---0-----0---0-----------0---0-----0---0-||
G|--------------------------------------------------------------------||
D|--------------------------------------------------6-------------6---||
A|--------------7-------------7---------7-----------------------------||
D|--------------------------------------------------------------------||

E|-5-0---------4-0-------0---4-0-------4-0---------5-4----5-4-----5-4-||
B|-----0---0-------0---0---0-----0---0-----0---0------5------5-------5||
G|-------------------1-------------1---------1------------------------||
D|-------6------------------------------------------------------------||
A|--------------------------------------------------------------------||
D|--------------------------------------------------------------------||

 Guitar I - Chorus - Light Distortion
E|--------------||
B|--------------|| 
G|--1-----6-----|| 
D|--2--7--6--7--||
A|--2--7--4--7--||
D|-----7-----7--||

 


Guitar I - Solo - Light Distortion
E|--------------------------------------------------------------------||
B|--8h--9-7-5-4-4-4-5-2/-14h-12-10-9-10-12----------------------------||
G|----------------------------------------------11--11-13-14/13-------||
D|--------------------------------------------------------------------||
A|--------------------------------------------------------------------||
D|--------------------------------------------------------------------||
[ Tab from: https://www.guitartabs.cc/tabs/s/staind/everything_changes_tab_ver_5.html ]
E|--------------------------------------------16h-14-12--12---11------||
B|--------------------17h16-------19h-17---------------------------12-||
G|--13-13-13-13-14-16--------18------------20-------------------------||
D|--------------------------------------------------------------------||
A|--------------------------------------------------------------------||
D|--------------------------------------------------------------------||

E|--------------------------------------------------------------------||
B|--14--12------------------------------------------------------------||
G|----------11--------------------------------------------------------||
D|--------------11---1413/11-----------------------------------------||
A|--------------------------------------------------------------------||
D|--------------------------------------------------------------------||
             - -

Guitar I - Interlude - Clean
E|--------7-0-------0---7-0-------7-0---------5-4-0-----0---5-0-------||
B|------------0---0---0-----0---0-----0---0-----------0---0-----0---0-||
G|--------------------------------------------------------------------||
D|--------------------------------------------------6-------------6---||
A|--------------7-------------7---------7-----------------------------||
D|--------------------------------------------------------------------||

E|-5-0---------4-0-------0---4-0-------4-0---------5-4----5-4-----5---||
B|-----0---0-------0---0---0-----0---0-----0---0------5------5-----4-5||
G|-------------------1-------------1---------1------------------------||
D|-------6------------------------------------------------------------||
A|--------------------------------------------------------------------||
D|--------------------------------------------------------------------||

 Guitar I - Chorus - Light Distortion
E|--------------||
B|--------------||   
G|--1-----6-----|| 
D|--2--7--6--7--||       Play 2x
A|--2--7--4--7--||
D|-----7-----7--||




Guitar II - Outro  Clean
E|--------7-0-------0---7-0-------7-0---------5-4-0-----0---5-0-------||
B|------------0---0---0-----0---0-----0---0-----------0---0-----0---0-||
G|--------------------------------------------------------------------||
D|--------------------------------------------------6-------------6---||
A|--------------7-------------7---------7-----------------------------||
D|--------------------------------------------------------------------||

E|-5-0---------4-0-------0---4-0-------4-0---------5-Let it ring-----||
B|-----0---0-------0---0---0-----0---0-----0---0----------------------||
G|-------------------1-------------1---------1------------------------||
D|-------6------------------------------------------------------------||
A|--------------------------------------------------------------------||
D|--------------------------------------------------------------------||