Sr 71 - Kick Me When Im High Chords & Tabs

 

Kick Me When Im High Chords & Tabs

Sr 71 Chords & Tabs

Version: 1 Type: Bass Tab

Kick Me When Im High Bass Tab

   
++++++++++++++++++++++++++++++++
| Sr-71- Kick Me When I'm High |
++++++++++++++++++++++++++++++++

Hey I downloaded this as Sum 41
But I guess its not Sum 41 heh...

Tuning: Eb,A,D,G 

Intro
1.
G-|-------------------------------------------------------------------------|
D-|-------------------------------------------------------66666666-66666666-|
A-|-------------------------------------------------------------------------|
Eb|-------------------------------------------------------------------------|

2.
G-|-------------------------------------------------------------------------|
D-|-11111111-11111111-------------------------------------------------------|
A-|-------------------33333333-33333333-11111111-11111111-------------------|
Eb|-------------------------------------------------------55555555-55555555-|

Verse
"She clings to me like cellophane..."
3.
G-|-----------------------------------------------------------------------|
D-|-1-111111-11111111-----------------------------------------------------|
A-|-------------------3-333333-33333333-1-111111-11111111-----------------|
Eb|-------------------------------------------------------5-555555-555555-|

"So what if sex is great..."
4.
G-|---------------------------------------------------------------------------|
D-|-0-11111111-111111---------------------------------------------------------|
A-|-------------------2-33333333-333333-0-11111111-111111---------------------|
Eb|-------------------------------------------------------4-55555555-55555555-|

Chorus
"Why...?"
5.
G-|-------------------------------------------------------------------------------------|
D-|-------------------------------------------------------------------------------------|
A-|--------11-111-33-333---------------11-111-33-333---------------11-111-33-333--------|
Eb|-00-000---------------55-555-00-000---------------55-555-00-000---------------55-555-|

"She may not be..."
6.
G-|-------------------------------|
D-|-3---3/5-5-3-------------------|
A-|---3---------------------------|
Eb|-------------55555555-55555555-|

Outro
7.
G-|-------------------------------------------------------------------------|
D-|-11111111-11111111-------------------------------------------------------|
A-|-------------------33333333-33333333-11111111-11111111-------------------|
Eb|-------------------------------------------------------55555555-55555555-|

Verse
"I used to hang on every word..."
8.
G-|-----------------------------------------------------------------------|
D-|-1x--------------------------------------------------------------------|
A-|-------------------33333333-33333333-11111111-11111111-----------------|
Eb|-------------------------------------------------------55555555-555555-|

"She taught me how to trust..."
9.
G-|---------------------------------------------------------------------------|
D-|-0-11111111-111111---------------------------------------------------------|
A-|-------------------2-33333333-333333-0-11111111-111111---------------------|
Eb|-------------------------------------------------------4-55555555-55555555-|
[ Tab from: https://www.guitartabs.cc/tabs/s/sr_71/kick_me_when_im_high_btab.html ]
Pre-Chorus
"You know I used to be such a nice boy"
10.
G-|--------------------------------------------------------|
D-|--------------------------------------------------------|
A-|--------------2~----------------------------------------|
Eb|-2--0-2-4--2--------------------------------------------|

Chorus
"Why...?"
11.
G-|-------------------------------------------------------------------------------------|
D-|-------------------------------------------------------------------------------------|
A-|--------11-111-33-333---------------11-111-33-333---------------11-111-33-333--------|
Eb|-00-000---------------55-555-00-000---------------55-555-00-000---------------55-555-|

12.
G-|-------------------------------|
D-|-3---3/5-5-3-66666666-66666666-|
A-|---3---------------------------|
Eb|-------------------------------|

Bridge
13.
G-|---------------------------------------------------------------|
D-|-1x----1-------------------------1x----1-----------------1-----|
A-|---------1x----1-3x----3-----------------1x----1-3x----1-------|
Eb|-------------------------5x----5---------------------------4-5-|

14.
G-|-------------------------------------------------------------------------|
D-|-11111111----------------------------11111111----------------------------|
A-|----------11111111-33333333-------------------11111111-33333333----------|
Eb|----------------------------55555555----------------------------55555555-|

Verse
"She clings to me like cellophane..."
15.
G-|-----------------------------------------|
D-|-1~--------------------------------------|
A-|-----------1~----------------------------|
Eb|---------------------2~--------5~--------|

Chorus
"Why...?"
16.
G-|-------------------------------------------------------------------------------------|
D-|-------------------------------------------------------------------------------------|
A-|--------11-111-33-333---------------11-111-33-333---------------11-111-33-333--------|
Eb|-00-000---------------55-555-00-000---------------55-555-00-000---------------55-555-|

17.
G-|-------------------------------|
D-|-3---3/5-5-3-66666666-66666666-|
A-|---3---------------------------|
Eb|-------------------------------|

Outro
"Right now..."
18.
G-|-------------------------------------------------------------------------|
D-|-11111111-11111111-------------------------------------------------------|
A-|-------------------33333333-33333333-11111111-11111111-------------------|
Eb|-------------------------------------------------------55555555-55555555-|

19.
G-|---------------------------------------------------------------------------------|
D-|-11111111-11111111---------------------------------------------------------------|
A-|-------------------33333333-33333333-11111111-11111111-2~----6-4~----4-6~--------|
Eb|---------------------------------------------------------------------------------|

Lyrics:


She clings to me like cellophane
Fake plastic submarine
Slowly driving me insane
But now thatís over
So what if the sex is great
Just temporary escape
Another thing I grew to hate
But now thatís over

Why why do you always kick me when im high?
Knock me down till we see eye to eye
Figured her out I know she may not be
Miss right she'll do right now 

I used to hang on every word
Each lie was more absurd
Kept me so insecure but now thatís over
She taught me how to trust
And to believe in us
Then she taught me how to cuss
That bitch its over
You know I used to be such a nice boy

+++++++++++++++++++++++++++++++++
| RaiLeff                       |
| Underground__Dora@Hotmail.Com |
+++++++++++++++++++++++++++++++++