Squeeze - Is That Love Chords & Tabs

 

Is That Love Chords & Tabs

Squeeze Chords & Tabs

Version: 1 Type: Bass Tab

Is That Love Bass Tab

The Squeeze  Is that love

                                                                   
Bass Tab

by Fandanglos

Not 100% correct but a good start


Intro: 

  
G||----------------|----------------|----------------|----------------|
D||----------------|----------------|----------------|----------------|
A||----------------|7-7-7-7-7-7-7-7-|8-8-8-8-8-8-8-8-|----------------|
E||5-5-5-5-5-5-5-5-|----------------|----------------|8-8-8-8-8---7---|

Verse:  

You left my ring    by the soap  	  Now is that love?

G||----------------|----------------|----------------|----------------|
D||----------------|----------------|----------------|----------------|
A||----------------|7-7-7-7-7-7-7-7-|8-8-8-8-8-8-8-8-|----------------|
E||5-5-5-5-5-5-5-5-|----------------|----------------|8-8-8-8-8---7---|
   
You cleaned me out you could say broke    Now is that love?
G||----------------|----------------|----------------|----------------|
D||----------------|----------------|----------------|----------------|
A||----------------|7-7-7-7-7-7-7-7-|8-8-8-8-8-8-8-8-|----------------|
E||5-5-5-5-5-5-5-5-|----------------|----------------|8-8-8-8-8---7---|

The better, better, better it gets   The more these girls forget that that is
G||----------------|----------------|----------------|----------------|
D||----------------|----------------|----------------|----------------|
A||----------------|----------------|----------------|8-8-8-8-7-7-7-7-|
E||5-5-5-5-5-5-5-5-|3-3-3-3-3-3-3-3-|6-6-6-6-6-6-6-6-|----------------|

   love
G||----------------|---------------|
D||----------------|7--------------|
A||--------7---7---|---------------|
E||5-----5---------|---------------|

You won't get dressed. You walk about Now is that,    is that?
G||----------------|----------------|----------------|-----------------------|
D||----------------|----------------|----------------|-----------------------|
A||----------------|7-7-7-7-7-7-7-7-|8-8-8-8-8-8-8-8-|10-10-10-10-10-10-10-10|
E||5-5-5-5-5-5-5-5-|----------------|----------------|-----------------------|

The teasing block says push me out   Now is that,     is that?
G||----------------|----------------|----------------|-----------------------|
D||----------------|----------------|----------------|-----------------------|
A||----------------|7-7-7-7-7-7-7-7-|8-8-8-8-8-8-8-8-|10-10-10-10-10-10-10-10|
E||5-5-5-5-5-5-5-5-|----------------|----------------|-----------------------|



The tougher, tougher, tougher it gets The more my lips frequent Now that is

G||----------------|----------------|----------------|----------------|
D||----------------|----------------|----------------|----------------|
A||----------------|----------------|8-8-8-8-8-8-8-8-|7-7-7-7-7-7-7-7-|
E||8-8-8-8-8-8-8-8-|5-5-5-5-5-5-5-5-|----------------|----------------|

   love
G||----------------|----------------|
D||----------------|----------------|
A||--------7---7---|----------------|
E||5-----5---------|5-5-5-5-5-5-5-5-|


Chorus:

   Beat me up with your letters        Your walk-out notes
G||-------------------|------------------|-----------------|-----------------| 
D||----------9-10-----|------------------|-----------------|-----------------|
A||12-----12----------|10----------------|---------9-------|11---------------|
E||-------------------|------------------|10---------------|--------12-------|

   Funny how you still find me            Right here at home
G||-------------------|------------------|-----------------|-----------------| 
D||----------9-10-----|------------------|-----------------|-----------------|
A||12-----12----------|10----------------|---------9-------|11-------------0-|
E||-------------------|------------------|10---------------|---------0-1-3---|
[ Tab from: https://www.guitartabs.cc/tabs/s/squeeze/is_that_love_btab.html ]
           Legs      up with a book and a drink. Now is that   love that's 
G||-----------------|-----------------|-----------------|-----------------|
D||-----------------|-----------------|-----------------|-----------------|
A||2--------------0-|2--------------0-|2--------------0-|2--------------0-|
E||---------0-1-3---|---------0-1-3---|---------0-1-3---|---------0-1-3---|

 makin' you think?          
G||-----------------|---------|
D||-----------------|---------|
A||5--------------0-|5--------|
E||---------0-1-3---|---------|

Verse 2:

You called my bluff, I'm not so hot   Now is that,    love?
G||----------------|----------------|----------------|----------------|
D||----------------|----------------|----------------|----------------|
A||----------------|7-7-7-7-7-7-7-7-|8-8-8-8-8-8-8-8-|----------------|
E||5-5-5-5-5-5-5-5-|----------------|----------------|8-8-8-8-8-8-7-7-|

My assets froze while yours have dropped Now is that,     is that?
G||----------------|----------------|----------------|-----------------------|
D||----------------|----------------|----------------|-----------------------|
A||----------------|7-7-7-7-7-7-7-7-|8-8-8-8-8-8-8-8-|10-10-10-10-10-10-10-10|
E||5-5-5-5-5-5-5-5-|----------------|----------------|-----------------------|




It's the Cupid Cupid Cupid disguise that more or less survive now that is
 
G||----------------|----------------|----------------|----------------|
D||----------------|----------------|----------------|----------------|
A||----------------|----------------|8-8-8-8-8-8-8-8-|7-7-7-7-7-7-7-7-|
E||8-8-8-8-8-8-8-8-|5-5-5-5-5-5-5-5-|----------------|----------------|

   love
G||----------------|----------------|
D||----------------|7-7-7-7-7-7-7-7-|
A||--------7---7---|----------------|
E||5-----5---------|----------------|

Guitar Solo:

G||----------------|----------------|----------------|----------------|
D||----------------|----------------|----------------|----------------|
A||----------------|7-7-7-7-7-7-7-7-|8-8-8-8-8-8-8-8-|----------------|
E||5-5-5-5-5-5-5-5-|----------------|----------------|8-8-8-8-8---7---|


G||----------------|----------------|----------------|----------------|
D||----------------|----------------|----------------|----------------|
A||----------------|7-7-7-7-7-7-7-7-|8-8-8-8-8-8-8-8-|----------------|
E||5-5-5-5-5-5-5-5-|----------------|----------------|8-8-8-8-8---7---|


G||----------------|----------------|----------------|----------------|
D||----------------|----------------|----------------|----------------|
A||----------------|----------------|----------------|8-8-8-8-7-7-7-7-|
E||5-5-5-5-5-5-5-5-|3-3-3-3-3-3-3-3-|6-6-6-6-6-6-6-6-|----------------|

   
G||----------------|----------------|
D||----------------|----------------|
A||--------7-7-7-7-|----------------|
E||5-5-5-5---------|5-5-5-5-5-5-5-5-|

Chorus:

   Beat me up with your letters           Your walk-out     notes
G||-------------------|------------------|-----------------|-----------------| 
D||----------9-10-----|------------------|-----------------|-----------------|
A||12-----12----------|10----------------|---------9-------|11---------------|
E||-------------------|------------------|10---------------|--------12-------|

   Funny how you still find me            Right here at     home
G||-------------------|------------------|-----------------|-----------------| 
D||----------9-10-----|------------------|-----------------|-----------------|
A||12-----12----------|10----------------|---------9-------|11-------------0-|
E||-------------------|------------------|10---------------|---------0-1-3---|

           Legs up with a book and a drink. Now is that love that's makin' 
G||-----------------|-----------------|-----------------|-----------------|
D||-----------------|-----------------|-----------------|-----------------|
A||2--------------0-|2--------------0-|2--------------0-|2--------------0-|
E||---------0-1-3---|---------0-1-3---|---------0-1-3---|---------0-1-3---|

 you think?          
G||-----------------|-----------------|
D||-----------------|0----------------|
A||5--------------0-|--3-2-3-0--------|
E||---------0-1-3---|-----------------|



You made my bed  the finger points

Now is that is that love?

The more ya more ya more ya cool down

The easier love is found  Now that is love