Specials - Do The Dog Chords & Tabs

 

Do The Dog Chords & Tabs

Specials Chords & Tabs

Version: 1 Type: Bass Tab

Do The Dog Bass Tab

   
Song: Do The Dog
Artist: The Specials
Album: The Specials
Tabbed by:

This is an easy song for people of most skill levels.  Itís fun to crank up the amp and jam to!

Tuning: Standard [E,A,D,G]


intro: play once
G:------------------------------3h4------------------|
D:---0-3-0---5-5-5-3-3-3-3---------------------------|
A:--------------------------5-5------------------E:--|

verse:  play this line 8 times
G:-------------------------------3h4-----------------|
D:------------5-5-5-3-3-3-3--------------------------|
A:---------------------------5-5-----------------E:--|

verse cont.
G:------------------------------------------------|
D:------------9-9-9-7-7-7-7-----------------------|
A:---------------------------9-9--5h6-------------|
E:------------------------------------------------|

G:-------------------------------3h4--------------|
D:------------5-5-5-3-3-3-3-----------------------|
A:---------------------------5-5------------------|
E:------------------------------------------------|

G:------------------------------------------------|
D:------------5-5-5-5-5-5-5-5-3-3-----------------|
A:------------------------------------------------|
E:------------------------------------------------|

guitar solo
[ Tab from: https://www.guitartabs.cc/tabs/s/specials/do_the_dog_btab.html ]
play once
G:------------------------------3h4--------------|
D:---0-3-0---5-5-5-3-3-3-3-----------------------|
A:--------------------------5-5------------------|
E:-----------------------------------------------|

play 3 times
G:-------------------------------3h4-------------|
D:------------5-5-5-3-3-3-3----------------------|
A:---------------------------5-5-----------------|
E:-----------------------------------------------|

play twice
G:-----------------------------------------------|
D:------------9-9-9-7-7-7-7----------------------|
A:---------------------------9-9--5h6------------|
E:-----------------------------------------------|

play 2 more times
G:-------------------------------3h4-------------|
D:------------5-5-5-3-3-3-3----------------------|
A:---------------------------5-5-----------------|
E:-----------------------------------------------|

play once
G:-----------------------------------------------|
D:------------5-5-5-5-5-5-5-5-3-3----------------|
A:-----------------------------------------------|
E:-----------------------------------------------|

verse 2:
same as intro + verse 1

end
play 2 times
G:-----------------------------------------------|
D:------------5-5-5-5-5-5-5-5-3-3----------------|
A:-----------------------------------------------|
E:-----------------------------------------------|