Soundgarden - Dusty Chords & Tabs

 

Dusty Chords & Tabs

Soundgarden Chords & Tabs

Version: 1 Type: Bass Tab

Dusty Bass Tab

Soundgarden  Dusty

Intro
G|------------|------------|------------|
D|------------|------------|------------|
A|-2--1--2--1-|-2--1--2--1-|-2--1-------|
E|------------|------------|------3--3~-|

Verse riff (x7):
G|------------|------------|------------|------------|
D|------------|------------|------------|------------|
A|-2p3-3--2---|---2p3-2p3--|-2p3-3--2---|---2p3-2p3--|
E|----------3-|-3--------3-|----------3-|-3--------3-|

First Chorus:
G|------------|------------|------------|-------|-----|
D|------3----3|----3----3--|------------|-------|-----|
A|------------|------------|-1-2-3----3-|3----3-|--3--|
E|-(3)--------|------------|------------|-------|-----|

G|------------|------------|------------|
D|------------|------------|------------|
A|-2--1--2--1-|-2--1--2--1-|-2--1-------|
E|------------|------------|------3--3~-|

G|------------|------------|------------|-------|-----|
D|------3----3|----3----3--|------------|-------|-----|
A|------------|------------|-1-2-3----3-|3----3-|--3--|
E|-(3)--------|------------|------------|-------|-----|

G|------------|------------|------------|------------|------------|------------|
D|------------|------------|------------|------------|------------|------------|
A|-2--1--2--1-|-2--1--2--1-|-2--1-------|-2--1--2--1-|-2--1--2--1-|-2--1-------|
E|------------|------------|------3--3~-|------------|------------|------3--3~-|

Verse riff (x6):
G|------------|------------|------------|------------|
D|------------|------------|------------|------------|
A|-2p3-3--2---|---2p3-2p3--|-2p3-3--2---|---2p3-2p3--|
E|----------3-|-3--------3-|----------3-|-3--------3-|

Second Chorus:
G|------------|------------|------------|-------|-----|
D|------3----3|----3----3--|------------|-------|-----|
A|------------|------------|-1-2-3----3-|3----3-|--3--|
E|-(3)--------|------------|------------|-------|-----|

G|------------|------------|------------|
D|------------|------------|------------|
A|-2--1--2--1-|-2--1--2--1-|-2--1-------|
E|------------|------------|------3--3~-|

G|------------|------------|------------|-------|-----|
D|------3----3|----3----3--|------------|-------|-----|
A|------------|------------|-1-2-3----3-|3----3-|--3--|
E|-(3)--------|------------|------------|-------|-----|
[ Tab from: https://www.guitartabs.cc/tabs/s/soundgarden/dusty_btab.html ]
G|------------|------------|------------|------------|------------|------------|
D|------------|------------|------------|------------|------------|------------|
A|-2--1--2--1-|-2--1--2--1-|-2--1-------|-2--1--2--1-|-2--1--2--1-|-2--1-------|
E|------------|------------|------3--3~-|------------|------------|------3--3~-|

G|------------|------------|------------|
D|------------|------------|------------|
A|-2--1--2--1-|-2--1--2--1-|-2--1-------|
E|------------|------------|------3--3~-|

Rest a bit-->

Then play this twice
G|-10h12----10-------------|-7----7----7----7--|-----|-------------------|
D|-------12----12-11-10-11-|-------------------|-7-8-|-9----9----9----9--|
A|-------------------------|-------------------|-----|-------------------|
E|-------------------------|-------------------|-----|-------------------|

G|------|---------------------|--|
D|------|---------------------|--|
A|------|---------------------|--|
E|-10-9-|-8----8----8----8----|-8|

G|------------|------------|------------|
D|------------|------------|------------|
A|-2--1--2--1-|-2--1--2--1-|-2--1-------|
E|------------|------------|------3--3~-| (x2)

Third Verse (4x):
G|------------|------------|------------|------------|
D|------------|------------|------------|------------|
A|-2p3-3--2---|---2p3-2p3--|-2p3-3--2---|---2p3-2p3--|
E|----------3-|-3--------3-|----------3-|-3--------3-|

Third Chorus:
G|------------|------------|------------|-------|-----|
D|------3----3|----3----3--|------------|-------|-----|
A|------------|------------|-1-2-3----3-|3----3-|--3--|
E|-(3)--------|------------|------------|-------|-----|

G|------------|------------|------------|
D|------------|------------|------------|
A|-2--1--2--1-|-2--1--2--1-|-2--1-------|
E|------------|------------|------3--3~-|

G|------------|------------|------------|-------|-----|
D|------3----3|----3----3--|------------|-------|-----|
A|------------|------------|-1-2-3----3-|3----3-|--3--|
E|-(3)--------|------------|------------|-------|-----|

G|------------|------------|------------|
D|------------|------------|------------|
A|-2--1--2--1-|-2--1--2--1-|-2--1-------|
E|------------|------------|------3--3~-|  (x4)

Break: (x4)
G|------------|------------|------------|
D|------------|------------|------------|
A|-2--1--2--1-|-2--1--2--1-|-2--1-------|
E|------------|------------|------3--3~-|

Outro (x3)
G|-------------------------|-------------------|------------------------|
D|-------------------------|-------------------|------------------------|
A|-\8~-------------------\-|-------------------|------------------------|
E|-------------------------|-8~----------------|-\3~--------------------|