Soul Embraced - To End It All Chords & Tabs

 

To End It All Chords & Tabs

Soul Embraced Chords & Tabs

Version: 2 Type: Tab

To End It All Tab

Guitar 1  2x
------------------------------------------------------------|
------------------------------------------------------------|
------------------------------------------------------------|
--0-2-3--5/7-5-7/9-7-9/11-9------0-2-35/7-5-7/9-7----------|
----------------------------------------------------3-2-----|
0------------------------------0----------------------------|

------------------------------------------------------------|
------------------------------------------------------------|
------------------------------------------------------------|
--0-2-3--5/7-5-7/9-7-9/11-9-------0-2-35/7-5-7/9-7---------|
-----------------------------------------------------3-2----|
0-------------------------------0---------------------------|

Guitar 1
------------------------------------------------------------|
------------------------------------------------------------|
-----------------------------10-8-9-7-----------------------|
----0-2-3--7-6-5-4--9-8-7-6---------------------------------|
-1----------------------------------------------------------|
-1----------------------------------------------------------|

------------------------------------------------------------|
------------------------------------------------------------|
------------------------------------------------------------|
----0-2-3--7-6-5-4--9-8-7-6--3-2----------------------------|
-1----------------------------------------------------------|
-1----------------------------------------------------------|
[ Tab from: https://www.guitartabs.cc/tabs/s/soul_embraced/to_end_it_all_tab_ver_2.html ]
------------------------------------------------------------|
------------------------------------------------------------|
-----------------------------10-8-9-7-----------------------|
----0-2-3--7-6-5-4--9-8-7-6---------------------------------|
-1----------------------------------------------------------|
-1----------------------------------------------------------|

------------------------------------------------------------|
------------------------------------------------------------|
---------------------------------------10-8-9-7-------------|
-------------0-2-3--7-6-5-4--9-8-7-6------------------------|
-1-1-1-1---1------------------------------------------------|
-1-1-1-1---1------------------------------------------------|

------------------------------------------------------------|
------------------------------------------------------------|
------------------------------------------------------------|
----0-2-3--7-6-5-4--9-8-7-6--3-2----------------------------|
-1----------------------------------------------------------|
-1----------------------------------------------------------|

------------------------------------------------------------|
------------------------------------------------------------|
-----------------------------10-8-9-7-----------------------|
----0-2-3--7-6-5-4--9-8-7-6---------------------------------|
-1----------------------------------------------------------|
-1----------------------------------------------------------|

------------------------------------------------------------|
------------------------------------------------------------|
------------------------------------------------------------|
----0-2-3--7-6-5-4--9-8-7-6--3-2----------------------------|
-1----------------------------------------------------------|
-1----------------------------------------------------------|

That's what I hear and that's how I play it. I'm a novice, so if you think yours is 
let's see it.