Sonic Youth - Total Trash Chords & Tabs

 

Total Trash Chords & Tabs

Sonic Youth Chords & Tabs

Version: 2 Type: Tab

Total Trash Tab

Band: Sonic Youth
Song: Total Trash
Album: Daydream Nation
Year: 1988


This is an arrangement of Total Trash for one guitar
in standard tuning. Enjoy!


Intro

e||---------------------------------||
B||---------------------------------||
G||*-------------------------------*||
D||*-0-0-2-0-2-4--0-0-2-0-2-4-4-4-*||
A||---------------------------------||
E||--3-3-3-3-3-3--3--3-3-3-3-3-3-3--||

Verse
X4
e||---------------------------------||
B||---------------------------------||
G||*-------------------------------*||
D||*-2----2--2--0---2---2-2-2-2b-0-*||
A||--0----0--0--0---x---x-x-x-x-x--||
E||-----------------3---3-3-3-3--3--||

Chorus
e||-----------------------------|
B||-----------------------------|
G||*-0-2-0-2-4----0-0-2-0-2-4-0-|
D||*-x-x-x-x-x----0-0-0-0-0-0-0-|
A||--3-3-3-3-3----x-x-x-x-x-x-x-|
E||---------------3-3-3-3-3-3-3-|

e|-------------------------------||
B|-------------------------------||
G|-0-2-0-2-4----0-0-4-2-0-------*||
D|-x-x-x-x-x----0-0-0-0-0-0-----*||
A|-3-3-3-3-3----x-x-x-x-x-x------||
E|--------------3-3-3-3-3-3------||
[ Tab from: https://www.guitartabs.cc/tabs/s/sonic_youth/total_trash_tab_ver_2.html ]
e|-------------------------------------|
B|-3-3-3-3-3-3-3-3-3-------------------|
G|-2-2-2-2-2-2-2-2-2-------------------|
D|-0-0-0-0-0-0-0-0-0------5-5b-5-5b-5--|
A|-------------------------------------|
E|-------------------------------------|

Notation

b		bend note 1/2 step
x		mute string


Song Order:


(Intro x2)

(Verse)

(Chorus)

(Intro)

(Verse)
It starts at the top
Now it's spiraling down
Works best when it's lost
Diggin' under the ground

(Chorus)
Never mind it now
We can bring it back
It's total trash
And it's a natural fact
That I'm not no cow

(Intro)

(Verse)
It's never the same
It's more than a game
Can't take it away
Can't kill all the shame

(Chorus)
It's a guilty man
That increased the crack
It's total trash
Sack 'em on the back
With a heavy rock

(Intro)

(Long noise/feedback solo)

(Chorus)
There he goes again
Magic monkey friend
Can I love the time
That he seems to spend
With all the kids in town

(Intro)

(Verse)
It starts at the top
Now it's spiraling down
Works best when it's lost
Diggin' under the ground

(Chorus)
Never mind it now
We can bring it back
It's total trash
And it's a natural fact
That I'm not no cow