Smile Empty Soul - End Of The World Chords & Tabs

 

End Of The World Chords & Tabs

Smile Empty Soul Chords & Tabs

Version: 1 Type: Tab

End Of The World Tab

Smile Empty Soul  End Of The World

Standard tune

1 half

E|-----------|
B|-----------|
G|-14--9--13-|
D|-14--9--13-|
A|-12--7--11-|
E|----------|

2 half
[ Tab from: https://www.guitartabs.cc/tabs/s/smile_empty_soul/end_of_the_world_tab.html ]
E|------------------------|
B|------------------------|
G|------------------------|
D|-4--7--6--7--9--4--7--9-|
A|-4--7--4--7--9--4--7--9-|
E|-2-5--4--5--7--2--5--7-|

ssmile@inbox.ru