Smashing Pumpkins - 1979 Chords & Tabs

 

1979 Chords & Tabs

Smashing Pumpkins Chords & Tabs

Version: 4 Type: Bass Tab

1979 Bass Tab

-----------------------------------------------------------------
1979  Smashing Pumpkins
-----------------------------------------------------------------

Tabbed By: Benno
e-mail: voodoolamp@gmail.com

Tuning: EADG
Chorus
G|---------------------------------------------------------------|
D|-0-0-0-0-0-0-0--1-1-1-1-1-1-1----------------------------------|  
A|---------------------------------------------------------------|           
E|-------------------------------4-4-4-4-4-4-4-4-4-4-4-4-4-4-4-4-|

Break 
G|-------------------------------|
D|-------------------------------|
A|----------------1-1-1-1-1-1-1--|
E|-1-1-1-1-1-1-1-----------------|
[ Tab from: https://www.guitartabs.cc/tabs/s/smashing_pumpkins/1979_btab_ver_4.html ]
Verse 
G|-----------------------------------------------------------------|
D|-1-1-1-1-1-1-1--0-0-0-0-0-1-1-1----------------------------------|
A|-----------------------------------------------------------------|
E|---------------------------------4-4-4-4-4-4-4-4-4-4-4-4-4-4-4-4-|

Verse 2
G|---------------------------------------------------------------|
D|-3-3-3-3-3-3-3-3-3-3-3-3-3-3-3-3-------------------------------|
A|----------------------------------3-3-3-3-3-3-3----------------|
E|-------------------------------------------------4-4-4-4-4-4-4-|

Sequence:
3x Chorus
Break
3x Verse
Break
4x Chorus
Break
3x Verse
Verse 2
Break
2x Chorus
Break
3x Verse
Break
2x Chorus

This song is relatively simple but its fantastic, enjoy my fellow bassists!!