Slipknot - Scissors Chords & Tabs

 

Scissors Chords & Tabs

Slipknot Chords & Tabs

Version: 2 Type: Tab

Scissors Tab

   
-------------------------------------------------------------------------------
			     Scissors- Slipknot
-------------------------------------------------------------------------------
Tabbed by:thezohan
Email:

Tuning: Drop F# with C# tuning (F#-F#-B-E-G#-C#)
The tuning is weird. Let me explain. You tune to Drop B
Then tune the low E string down to a low F# so it is
A whole octave lower  than the A string.

Intro Gtr. 1 (trust me itís right, listen very close) use wah pedal
C#|----------------------------------------------|
G#|----------------------------------------------|
E |----------------------------------------------|
B |-9-9--9-11--9-11--9-11--11-9------------------|
F#|-7-7--7-7---7-7---7-7---7--7------------------|
F#|-7-7--7-7---7-7---7-7---7--7------------------|

 Intro Gtr. 2      +natural harmonic
C#|-------------------------------------------|
G#|-------------------------------------------|
E |-------------------------------------------|
B |-------------------------------------------|
F#|---------------------------2-2-2-----------|
F#|-3-3-3-3-3-3-3-3-3-3-3-3-3-----------------|
    + + + + + + + + + + + + + + + + 

 Verse          Just palm mute the E string until you hear 2 cymbals crash
 It goes something like this. Note:Not the exact amount of palm mutes
C#|-------------------------------------------------------------------|
G#|-------------------------------------------------------------------|
E |-xxxxxxxxxxxxxxxxxxxxxx4xxxxxxxxxxxxxxxxxxxxxxxxxxxx4xxxx4xxxxxxxxx|
B |-------------------------------------------------------------------|
F#|-------------------------------------------------------------------|
F#|-------------------------------------------------------------------|
  At End of verse Go:
C#|-------------------------0-0-0-0----|
G#|-0-0-0-0-0-0-0-0-0-0-0-0-0-0-0-0----|
E |------------------------------------|
B |------------------------------------|
F#|------------------------------------|
F#|------------------------------------|

 Riff 1
C#|--------------------------------------|
G#|--------------------------------------|
E |--------------------------------------|
B |--------------------------------------|
F#|-0-1--0~--0-1--0~--0-1--0~--0-1--0~---|
F#|-0-1--0~--0-1--0~--0-1--0~--0-1--0~---|
 
 Riff 2   W/ wah pedal  x4
C#|-------------------------------------------------------------------------|
G#|-------------------------12-12-12-12-------------------------12-12-12-12-|
E |-14b16-14b16-14b16-14b16-------------14b15-14b15-14b15-14b15-------------|
B |-------------------------------------------------------------------------|
F#|-------------------------------------------------------------------------|
F#|-------------------------------------------------------------------------|
[ Tab from: https://www.guitartabs.cc/tabs/s/slipknot/scissors_tab_ver_2.html ]
 Riff 3
C#|-------------------------------|
G#|-------------------------------|
E |-------------------------------|
B |-------------------------------|
F#|-0-3-2-0-3-2-0-5--0-5--0-1-----|
F#|-0-3-2-0-3-2-0-5--0-5--0-1-----|
    X X X X X X X    X    X

 Riff 4
C#|-----------------------------------------------------------|
G#|-----------------------------------------------------------|
E |-----------------------------------------------------------|
B |-----------------------------------------------------------|
F#|-111-1-1-1-----000-0-0-0-----111-1-1-1-----000-0-0-0-------|
F#|-111-1-1-1-----000-0-0-0-----111-1-1-1-----000-0-0-0-------|
    XXX X X X     XXX X X X     XXX X X X     XXX X X X
 
 
 Riff 5 "Biding my time until the time is right"
C#|--------------------------|
G#|--------------------------|
E |--------------------------|
B |--------------------------|
F#|-0-1--0-1--0-1--0-1--0-0--|
F#|-0-1--0-1--0-1--0-1--0-0--|

 Then Do: Riff 1

 O.K. Now we are at the feedback part. Guitar 1 just does some feedback 
 in the background, but Guitar 2 has some very distinct riffs that are
 not in the other Scissors tabs.

  Pt. 1

  Gtr. 1                                                Gtr. 2
C |---15~~~~~-----------------|---------------------------------|
G#|----------------------15~~-|-----------------------14~~~~~---|
E |---------------------------|---------------------------------|
B |---------------------------|---------------------------------|
F#|---------------------------|---------------------------------|
F#|---------------------------|---------------------------------|

 Pt. 2
C#---------22-22-22\20--------|
G#|-20b22---------------------|
E |---------------------------|
B |---------------------------|
F#|---------------------------|
F#|---------------------------|

  Pt. 3
C#|--------14-15-16-----------14-15-16-----|
G#|----------------------------------------|
E |-12b14-------------12b14----------------|
B |----------------------------------------|
F#|----------------------------------------|
F#|----------------------------------------|

  Pt. 4         tr-trill
C#|---------------------------------|
G#|---------------------------------|
E |-12tr14--12tr14--12tr15--12tr14--|
B |---------------------------------|
F#|---------------------------------|
F#|---------------------------------|

  Pt 5. Just solo really crazy!!

  After that, just hold this note and let it ring for a while
C#|--------------------------------------------------|
G#|--------------------------------------------------|
E |--------------------------------------------------|
B |--------------------------------------------------|
F#|-0~~~~~~~~~~~~~~~~~~~~~~~~~~~~~~~~~~~~~~~~~~~~~---|
F#|-0~~~~~~~~~~~~~~~~~~~~~~~~~~~~~~~~~~~~~~~~~~~~~---|

  Last Riff
C#|------------------------------------|
G#|------------------------------------|
E |------------------------------------|
B |------------------------------------|
F#|-0-1--0--0-1--0--0-1--0--0-1--0-----|
F#|-0-1--0--0-1--0--0-1--0--0-1--0-----|

Enjoy! Please Comment/Rate!!!

| /  slide up
| \  slide down
| h  hammer-on
| p  pull-off
| ~  vibrato
| +  harmonic
| x  Mute note
===============================================================================