Slipknot - No Life Chords & Tabs

 

No Life Chords & Tabs

Slipknot Chords & Tabs

Version: 5 Type: Tab

No Life Tab

   
-------------------------------------------------------------------------------
     No Life - Slipknot
-------------------------------------------------------------------------------


Tuning: Drop B (B,F#,B,E,G#,C#)
tabbed by:thezohan

 Intro (Don't know how many times)
C#|----------------------------------------------------------------|
G#|----------------------------------------------------------------|
E |----------------------------------------------------------------|
B |----------------------------------------------------------------|
F#|----------------------------------------------------------------|
B |-6~-0-6~-0-0h66p0-0-6~-0-6~-0-0h66p0-0--------------------------|
 Intro 2         x2    Note: *natural harmonic
              
              * * * *            * * * *           * * * *          * * * *         
C#|-------------------------------------------------------------------------|
G#|-------------------------------------------------------------------------|
E |-----------5-5-5--------------5-5-5-------------5-5-5------------5-5-5---|
B |-----------------5------------------5-----------------5----------------5-|
F#|-0h2-0-1-0----------0h2-0-1-0---------0h2-0-1-0---------0h2-0-1-0--------|
B |-0h2-0-1-0----------0h2-0-1-0---------0h2-0-1-0---------0h2-0-1-0--------|
 Verses (Don't know how many times)w/ wah pedal
C#|---------------------------------------------------------------------------|
G#|---------------------------------------------------------------------------|
E |---------------------------------------------------------------------------|
B |-2h1-1h2-2h3-3333---2h1-1-1h2-2h3-3-3--------------------------------------|
F#|---------------------------------------------------------------------------|
B |-2h1-1h2-2h3-3333---2h1-11h2-2h3-3-3--------------------------------------|
 Chorus x2
[ Tab from: https://www.guitartabs.cc/tabs/s/slipknot/no_life_tab_ver_5.html ]
              * * * *            * * * *
C#|------------------------------------------------|
G#|------------------------------------------------|
E |-----------5------------------5-----------------|
B |-------------5-5----------------5-5-------------|
F#|-0h6-0-4-3-------5-0h6-0-4-3-------5-----------|
B |-0h6-0-4-3----------0h6-0-4-3-------------------|
 
Bridge 1 pt. 1  x2
C#|-------------------------------------------------------------------|
G#|-------------------------------------------------------------------|
E |-------------------------------------------------------------------|
B |-------------------------------------------------------------------|
F#|-------0-0-0-------0-0-0-------0-0-0-------------------------------|
B |-0-1-0-0-0-0-0-1-0-0-0-0-0-1-0-0-0-0-0-1-0-4-4-4-------------------|
          X X X       X X X       X X X 

Bridge 1 pt. 2 x1  (gtr. 1)
C#|--------------------------------------------------------------|
G#|--------------------------------------------------------------|
E |--------------------------------------------------------------|
B |-7-7-7-7-7-7-5-5-5-5-5-5--------------------------------------|
F#|-------------------------1-1-1-1-1-1-2-2-2-0-0-0--------------|
B |--------------------------------------------------------------|
    X X X X X X X X X X X X X X X X X X X X X 
 
Bridge 1 pt. 2 x1  (gtr. 2)
C#|-------------------------------------------------------------|
G#|-------------------------------------------------------------|
E |-------------------------------------------------------------|
B |-------------------------------------------------------------|
F#|-------0-0-0-------0-0-0-------0-0-0-------2-2-2-------------|
B |-0-1-0-0-0-0-0-1-0-0-0-0-0-1-0-0-0-0-0-1-0-------------------|
          X X X       X X X       X X X

Bridge 2
C#|--------------------------------------------------------------|
G#|--------------------------------------------------------------|
E |--------------------------------------------------------------|
B |--------------------------------------------------------------|
F#|-2-1-000-0-3333-2--2-1-000-0-3333-2---------------------------|
B |-2-1-000-0-3333-2--2-1-000-0-3333-2---------------------------|
        XXX X             XXX X

Enjoy! Please Comment/Rate!

| /  slide up
| \  slide down
| h  hammer-on
| p  pull-off
| ~  vibrato
| +  harmonic
| x  Mute note
===============================================================================