Slipknot - Me Inside Chords & Tabs

 

Me Inside Chords & Tabs

Slipknot Chords & Tabs

Version: 3 Type: Tab

Me Inside Tab

   
-------------------------------------------------------------------------------
			     Me Inside - Slipknot
-------------------------------------------------------------------------------
Tabbed by:thezohan
Email:

Tuning:Drop B (B,F#,B,E,G#,C#)

Intro *Lead Gtr*   w/ wah pedal      (Riff 1)
C#|---------------------------------------------------------------------------|
G#|---------------------------------------------------------------------------|
E |-777777777777777777777777777777777777777777777777777777777777777777777777--|
B |---------------------------------------------------------------------------|
F#|---------------------------------------------------------------------------|
B |---------------------------------------------------------------------------|

Intro *Rhythm Gtr*     (Riff 1)
C#|-----------------------------------------|
G#|-----------------------------------------|
E |-----------------------------------------|
B |-----------------------------------------|
F#|-1--1-0---1--1-0---1--1-0---1--1-0-------|
B |-1--1-0---1--1-0---1--1-0---1--1-0-------|
    X  X     X  X     X  X     X  X
Riff 2
C#|---------------------------------------------------|
G#|---------------------------------------------------|
E |---------------------------------------------------|
B |---------------------------------------------------|
F#|-------0-0-0-------0-0-0-------0-0-0-------0-0-0---|
B |-1p0-0-0-0-0-1p0-0-0-0-0-1p0-0-0-0-0-1p0-0-0-0-0---|

Riff 3 (the little solo)
C#|-20p15----16p15p13p12---13h16h13h15h13-/20---13h16h13-------------13h16h13h15h13-/20----|
G#|-------17---------------------------------------------16--------------------------------|
E |---------------------------------------------------------13b15~-------------------------|
B |----------------------------------------------------------------------------------------|
F#|----------------------------------------------------------------------------------------|
B |----------------------------------------------------------------------------------------|

Verse *Lead Gtr*    (Riff 4)
C#|-----16-------15----------17~--------|
G#|--------15-------14------------------|
E |-14-----------------13----15~--------|
B |-------------------------------------|
F#|-------------------------------------|
B |-------------------------------------|
[ Tab from: https://www.guitartabs.cc/tabs/s/slipknot/me_inside_tab_ver_3.html ]
Verse *Rhythm Gtr*   (Riff 4)
C#|-----------------------------------------------------------------|
G#|-----------------------------------------------------------------|
E |-----------------------------------------------------------------|
B |-----------------------------------------------------------------|
F#|-----------------------------------------------------------------|
B |-3-0-2-3-1-2-----3-0-2-3-1-2-----3-0-2-3-1-2-----3-0-2-3-1-2-----|

Riff 5
C#|----------------------------------------------------|
G#|----------------------------------------------------|
E |-------7-7-7-7-7-7-7-7---------7-7-7-7-7-7-7-7------|
B |----------------------------------------------------|
F#|-1--1--5-5-5-5-5-5-5-5---1--1--5-5-5-5-5-5-5-5------|
B |-1--1--------------------1--1-----------------------|

Chorus  (Riff 6)
C#|-------------------------------------------|
G#|-------------------------------------------|
E |-----------------------5-5-5-7-7-7-8-8-----|
B |-------------------------------------------|
F#|-0--0-6-5-3--5--1-0-0--3-3-3-5-5-5-6-6-----|
B |-0--0-6-5-3--5--1-0-0----------------------|

Riff 7
C#|----------------------------------------|
G#|----------------------------------------|
E |----------------------------------------|
B |----------------------------------------|
F#|-000-0---00-0-0---00-0-0---00-0-0------|
B |-000-0---00-0-0---00-0-0---00-0-0------|
    XX X X   XX X X   XX X X   XX X X

Riff 8
C#|---------------------------------------------------------------------------|
G#|---------------------------------------------------------------------------|
E |---------------------------------------------------------------------------|
B |---------------------------------------------------------------------------|
F#|---------------------------------------------------------------------------|
B |-0h1p0-0--0-0-0h1p0-0--0-0-0h1p0-0--0-0-0h1p0-0--0-0--------------------|

Riff 9 *Lead Gtr*  w/ Wah pedal
C#|---------------------------------------------------------------------------|
G#|---------------------------------------------------------------------------|
E |-7777777777777777777777777777777777777777777777777777777777777777----------|
B |---------------------------------------------------------------------------|
F#|-5555555555555555555555555555555555555555555555555555555555555555----------|
B |---------------------------------------------------------------------------|

Riff 9 *Rhythm Gtr*
Same as Riff 7

| /  slide up
| \  slide down
| h  hammer-on
| p  pull-off
| ~  vibrato
| +  harmonic
| x  Mute note
===============================================================================