Slightly Stoopid - Closer To The Sun Chords & Tabs

 

Closer To The Sun Chords & Tabs

Slightly Stoopid Chords & Tabs

Version: 8 Type: Tab

Closer To The Sun Tab

   
                        *Intro*
         A                G                C               D
e------------------------------------------------0------2h3---0-----0---|
B---2h3---0---0---------------0-------------0-------------------3-------|
G----------2--------------0-----0--------0----0-------------------2-----|
D-----------2----------0----0---------0h2--0----0-----0-----0-----------|
A-0-----0----------0h2---2-----------3----------------------------------|
E-----------------3-----------------------------------------------------|

         A                G                C               D
e------------------------------------------------0------2h3---0h2-------|
B---2h3---0---0---------------0-------------0---------------------0-----|
G----------2--------------0-----0--------0----0-------------------------|
D-----------2----------0----0---------0h2--0----0-----0-----0-----------|
A-0-----0----------0h2---2-----------3----------------------------------|
E-----------------3-----------------------------------------------------|

                        *Solo*

e|-(3/5)-7p5------------(5/3)-5p3--------------|
B|--3/5-----7p5----------5/3-----5p3-----------|
G|--4/6----------6h7p6--6/4----------4h5p4----|
D|--5/7--------7---------7/5--------5----------|
A|---------------------------------------------|
E|---------------------------------------------|

e|-----3p1-------------------------0-3----5p3----------------------|
B|-3p1-----------------------------1/3-5p3---5p3-------------------|
G|--------0------------------------0-------------------------------|
D|------------2-0h2p0h2p0h2p0------2/4-----------4-0h4p0h4p0h4p0---| x2
A|----------3----------------------3/5----------5------------------|
E|-----------------------------------------------------------------|


[ Tab from: https://www.guitartabs.cc/tabs/s/slightly_stoopid/closer_to_the_sun_tab_ver_8.html ]
lyrics:
         A                         G
If I think she beautiful, well that's for sure 
         C                         D
Give a little loving, but I still gon need some more, rob it
         A                         G 
Steal it from the rich and then give it to the poor
         C                         D
Telling everbody it don't matter anymore, she said
         A                         G
All I really needed was a friend like you
         C                         D 
Help me through and together we can change, but 
         A                         G
If I was to stay it wasn't for too long 
         C                         D
People sing the same song everywhere I'm going 
         A                         G
Closer to the sun and far from the moon 
         C                         D                    
People screaming out they gonna see me real soon, 
         A     G     C     D
they say oooo oooo oooo oooo

              *Solo*

Then Repeat Words Again





OR

intro
e|--------------------------------------------2h3p2p0---0h2----|
B|-2h3p2-2p0---0------------0-----------1-------------3--------|
G|------------2-2--------0---0-----0--0--0-----------2-2-------|
D|----------2----2-----0--------0h2-2--2-----0-----------------| x2
A|0-----0-----------0h2----2---3-----3-------------------------|
E|-----------------3-------------------------------------------|

e|------------------------------------2h3p2--0----0h2-----------|
B|--2h3p2-0--------0----------------1---------3-----------------|
G|--------------2-2--------0-------0--------2--2----------------|
D|---------------2--------0-2---0h2---0-------------------------|
A|-0---------0---------2h3----3-----3---------------------------|
E|------------------3-------------------------------------------|

solo
e|-----7p5--------------5p3-----------------3p1------------------|
B|--------7p5--------------5p3-----------3p1---------------------|
G|-4/6--------6h7p6-6\4-------4h5p4-----------0-----------------|
D|-5/7-------7-------7\5------5------4\2---------2-0h2p0h2p0h2p0-|
A|-----------------------------------5\3--------3----------------|
E|---------------------------------------------------------------|

e|-0-3----5p3---------------------------------------------|
B|-1/3-5p3---5p3------------------------------------------|
G|-0------------------------------------------------------|
D|-2/4-----------4-0h4p0h4p0h4p0--------------------------| x2
A|-3/5----------5-----------------------------------------|
E|--------------------------------------------------------|