Slapshock - Direction Chords & Tabs

 

Direction Chords & Tabs

Slapshock Chords & Tabs

Version: 1 Type: Tab

Direction Tab

Song:Direction
Album:Silence
Artist:Slap Shock
Date Tabbed:May,2006
Guitar Tabber:Ryan Manongdo/16/m/Montalban Rizal
              no_falter0X@yahoo.com(Friendster&YM)
              09229015724(Sun Cell)

Gtr.Legends:
/\ - SLIDE
.  - PALM MUTING
x  - DEAD STRING
~  - LET IT RING
b  - BEND

Gtr.Tuning:Standard(Normal)

Gtr.1:                      Gtr.2 Enters
I need your own             If I pushing you 
advice...                   away...
e|------------------      ----------------------|
B|------------------ 4x   ----------------------|
G|-55555555555/6\5-- Then ----------------------|
D|-xxxxxxxxxxx-x-x--      --5--8--10-10-10-10---|
A|-33333333333/4\3--      --3--6---8--8--8--8---|
E|------------------      ----------------------|

Verse:
e|------------------      --------------------|
B|------------------ 3x   --------------------| 
G|------------------ Then --------------------|
D|---------888--10--      -5--8-10-10-10-10---| 
A|-333333--666--8---      -3--6--8--8--8--8---|
E|------------------      --------------------|
   ......       .

Interlude:
Gtr.1:             Gtr.2:
e|-------------    -----------------------------------|
B|-------------    -----------------------------------|
G|-------------    ---11b---12b---13b---15b---16h17---| 2x
D|-55-55-55-55-    -----------------------------------|
A|-33-33-33-33-    -----------------------------------|
E|-------------    -00----00----00----00----00--------|
   .. .. .. ..      ..    ..    ..    ..    ..       

Chorus:
I need your attention...              
e|--------------------------------|
B|--------------------------------|
G|--------------------------------|
D|-66666-55555-66666-5555555555---|
A|-66666-33333-66666-3333333333---|
E|-44444-------44444--------------|

I made my decision...
Gtr.1:
e|-------------------------------|
B|-------------------------------| 
G|-------------------------------| 
D|-666666-55555-66666-55555555---|
A|-666666-33333-66666-33333333---|
E|-444444-------44444------------|
[ Tab from: https://www.guitartabs.cc/tabs/s/slapshock/direction_tab.html ]
Gtr.2:
e|---------------------------------------------------|
B|---------------------------------------------------|    
G|-6/8--6/8--6/8--6/8----9/11---9/11---9/11---9/11---| 2x 
D|-x-x--x-x--x-x--x-x----x--x---x--x---x--x---x--x---| with a little
A|-4/6--4/6--4/6--4/6----7/-9---7/-9---7/-9---7/-9---| bit palm mute...
E|---------------------------------------------------|
  
I'm looking in your eyes...
e|---------------------------------|
B|-1313131313-13131313-------------|
G|---------------------------------|
D|----------------------888--10----|
A|----------------------666---8----|
E|---------------------------------|
                              .
Repeat Verse:
Repeat Interlude:
Repeat Chorus:
Repeat Interlude:

Bridge prt.1:
Gtr.1                          
e|----------------------------------------------------|
B|----------------------------------------------------|
G|----------------------------------------------------| 6x
D|----------------------------------------------------|
A|-00-7-00-6-00-4-00-3-xxxx---00-7-00-6-00-4-00-5h1---|
E|-00-5-00-4-00-2-00-1-xxxx---00-5-00-4-00-2-00-3h1---|
   ..   ..   ..   ..   

Gtr.2 Enters:
So here I am...
e|-88-11--88-12--88-13--88-14--11-13---|
B|-------------------------------------| Do this fast..
G|-------------------------------------| 4x
D|-------------------------------------|
A|-------------------------------------|
E|-------------------------------------|

Clean:
I need your                Point me to the
attention...               right direction... 
e|-------------------      -------------------------|
B|-13131313-12121212-      -------------------------|
G|-14141414-13131313- Then --------------55555555---|
D|-12121212-11111111-      --6666666666--55555555---|
A|-------------------      --6666666666--33333333---|
E|-------------------      --4444444444-------------|

Repeat Chorus"I made my decision":
 
Outro:
e|--------------|
B|--------------|
G|-5~--5~--5~---|
D|-5~--5~--5~---|
A|-3~--3~--3~---|
E|--------------|

End...
 
Direction Lyrics:

I need your own advice
Im falling far behind
You need to tell me now
If im pushing you away

I suffer with your dust
Im burnin all your trust
I canít believe itís true
That i need you here to stay

[Chorus]
I need your attention
Point me to the right direction
Iíve made my decision
Point me to the right direction

Iím looking in your eyes
Iím reading all your lies
I pretend to be alright
But it kills me down inside

I need to move away
From the broken endless day
When time is runnin out
Can you help me once again

[repeat chorus]

So here i am
To my last stand
Iím tired to fall
Iím tired to crawl
Itís my goodbye
To one and all
Just like before
Away from you 

[repeat chorus]