Skillet - Savior Chords & Tabs

 

Savior Chords & Tabs

Skillet Chords & Tabs

Version: 1 Type: Bass Tab

Savior Bass Tab

THIS IS NOT THE CORRECT TAB...
This is just how i play it. listen to the song, you'll understand.

Intro
G|---------------------|------------------|---------------|
D|-------------7-------|----7-------------|---------------|
A|-7--6--4--3-----5--3-|-------6--4--3----|-7--6--4--3----|
E|------------3--------|5-3------------3-7|---------------|

G|------------------|------------------|------------------|------------------|
D|------------------|------------------|------------------|------------------|
A|--------------2222|--------------2222|--------------2222|--------------2222|
E|-1-1-11-1-1-1-----|-1-1-11-1-1-1-----|-1-1-11-1-1-1-----|-1-1-11-1-1-1-----|	

Verse
G|---------------------|------------------|----------------|
D|-------------7-------|----7-------------|----------------|
A|-7--6--4--3-----5--3-|-------6--4--3----|-7--6--4--3-----|
E|------------3--------|5-3------------3-7|------------7-3-|

Pre-Chorus
G|--------------|--------------|--------------|-------------|-----------------|
D|-7--5--3------|-8--5--3------|-7--5--3------|-7--5--3-----|-----------------|
A|---------3----|-----------5--|---------54---|---------5---|-1111--33-1111-33|
E|-----------3--|---------3----|-----------3--|-----------3-|-----------------|

Chorus
G|-------------------------|---------------------------|
D|-------------------------|---------------------------|
A|-------------------555333|-------------------55553333|
E|-111-111-1---333555------|-111-111-1---333555--------|

Post-Chorus
G|------------------|------------------|------------------|------------------|
D|------------------|------------------|------------------|------------------|
A|--------------2222|--------------2222|--------------2222|--------------2222|
E|-1-1-11-1-1-1-----|-1-1-11-1-1-1-----|-1-1-11-1-1-1-----|-1-1-11-1-1-1-----|

Verse
G|---------------------|------------------|----------------|
D|-------------7-------|----7-------------|----------------|
A|-7--6--4--3-----5--3-|-------6--4--3----|-7--6--4--3-----|
E|------------3--------|5-3------------3-7|------------7-3-|
[ Tab from: https://www.guitartabs.cc/tabs/s/skillet/savior_btab.html ]
Pre-Chorus
G|--------------|--------------|--------------|-------------|----------------|
D|-7--5--3------|-8--5--3------|-7--5--3------|-7--5--3-----|----------------|
A|---------3----|-----------5--|---------54---|---------5---|-1111-33-1111-33|
E|-----------3--|---------3----|-----------3--|-----------3-|----------------|

Chorus
G|-------------------------|---------------------------|
D|-------------------------|---------------------------|
A|-------------------555333|-------------------55553333|
E|-111-111-1---333555------|-111-111-1---333555--------|

Bridge
G|-------------------------|---------------------------|
D|-------------------------|---------------------------|
A|-------------------555333|-------------------55553333|
E|-111-111-1---333555------|-111-111-1---333555--------|



G||-------------------------------------||------------------|------------------|
D||-55--44------------55--44------------||------------------|------------------|
A||---44-33-5555-------44--33-5555-----||--------------2222|--------------2222|
E||--------------55-33-------------55-33||-1-1-11-1-1-1-----|-1-1-11-1-1-1-----|

G||------------------------||-----------------------------------|
D||------------------------||-----------------------------------|
A||-----------------------||------------1111--------------1111-|
E||-2--2-3-2-1---2--2-3-2-1||-11-11-11-11------11-11-11-11------|

Pre-Chorus
G|---------------------|------------------|---------------|---------|
D|-------------7-------|----7-------------|---------------|---------|
A|-7--6--4--3-----5--3-|-------6--4--3----|-7--6--4--3----|---------|
E|------------3--------|5-3------------3-7|---------------|-222-111-|

Chorus
G|-------------------------|---------------------------|
D|-------------------------|---------------------------|
A|-------------------555333|-------------------55553333|
E|-111-111-1---333555------|-111-111-1---333555--------|

Bridge
G|-------------------------|---------------------------|
D|-------------------------|---------------------------|
A|-------------------555333|-------------------55553333|
E|-111-111-1---333555------|-111-111-1---333555--------|

Post-Chorus
G|------------------|------------------|------------------|-----------------|
D|------------------|------------------|------------------|-----------------|
A|--------------2222|--------------2222|--------------2222|-----------------|
E|-1-1-11-1-1-1-----|-1-1-11-1-1-1-----|-1-1-11-1-1-1-----|1111--1111-1111--|

Fin.