Skillet - Awake And Alive Chords & Tabs

 

Awake And Alive Chords & Tabs

Skillet Chords & Tabs

Version: 2 Type: Tab

Awake And Alive Tab

Skillet
Awake
Awake and Alive

Tabbed by: Rulerof52
Tuning: Drop B


Intro - 0:00  (x2)
Db|--------------------------------------------|
Ab|--------------------------------------------|
E |--------------------------------------------|
B |--------------------------------------------|
Gb|--------------------------------------------|
B |-5-5-5-5-5-5-5-5-5-5-5-5-5-5-5-5------------|

Intro  0:05  (x2)
Db|--------------------------------------------|
Ab|--------------------------------------------|
E |------------------------5-5--5--5-8--x-x-10-|
B |-5-5--5--3-5---x-x-5-3--5-5--5--5-8--x-x-10-|
Gb|-5-5--5--3-5---x-x-5-3--3-3--3--3-6--x-x-8--|
B |-5-5--5--3-5---x-x-5-3----------------------|

Verse  0:19 (x3)
Db|--------------------------------------------|
Ab|--------------------------------------------|
E |--------------------------------------------|
B |-5-5--5--x-5--5----5-5--5--x-5--5-----------|
Gb|-5-5--5--x-5--5----5-5--5--x-5--5-----------|
B |-5-5--5--x-5--5----5-5--5--x-5--5-----------|

Verse  0:38
Db|--------------------------------------------|
Ab|--------------------------------------------|
E |-5-5--5--x-5--5----3-3--3--x-3--3--10-------|
B |-5-5--5--x-5--5----3-3--3--x-3--3--10-------|
Gb|-3-3--3--x-3--3----1-1--1--x-1--1--8--------|
B |--------------------------------------------|

Chorus  0:43 (x3)
Db|--------------------------------------------|
Ab|--------------------------------------------|
E |------------3--3----------------------------|
B |-5--5-1--1--3--3-3--3-----------------------|
Gb|-5--5-1--1--1--1-3--3-----------------------|
B |-5--5-1--1-------3--3-----------------------|

Chorus  1:02
Db|--------------------------------------------|
Ab|--------------------------------------------|
E |-8-8-8-8-8-8-8-8-5-5-5-5-7------------------|
B |-8-8-8-8-8-8-8-8-5-5-5-5-7------------------|
Gb|-6-6-6-6-6-6-6-6-3-3-3-3-5------------------|
B |--------------------------------------------|

Intro  1:08  (x2)
Db|--------------------------------------------|
Ab|--------------------------------------------|
E |------------------------5-5--5--5-8--x-x-10-|
B |-5-5--5--3-5---x-x-5-3--5-5--5--5-8--x-x-10-|
Gb|-5-5--5--3-5---x-x-5-3--3-3--3--3-6--x-x-8--|
B |-5-5--5--3-5---x-x-5-3----------------------|

Verse  1:20  (x3)
Db|--------------------------------------------|
Ab|--------------------------------------------|
E |--------------------------------------------|
B |-5-5--5--x-5--5----5-5--5--x-5--5-----------|
Gb|-5-5--5--x-5--5----5-5--5--x-5--5-----------|
B |-5-5--5--x-5--5----5-5--5--x-5--5-----------|

Verse  1:38
Db|--------------------------------------------|
Ab|--------------------------------------------|
E |-5-5--5--x-5--5----3-3--3--x-3--3--10-------|
B |-5-5--5--x-5--5----3-3--3--x-3--3--10-------|
Gb|-3-3--3--x-3--3----1-1--1--x-1--1--8--------|
B |--------------------------------------------|

Chorus  1:43 (x3)
Db|--------------------------------------------|
Ab|--------------------------------------------|
E |------------3--3----------------------------|
B |-5--5-1--1--3--3-3--3-----------------------|
Gb|-5--5-1--1--1--1-3--3-----------------------|
B |-5--5-1--1-------3--3-----------------------|

Chorus  2:02
Db|--------------------------------------------|
Ab|--------------------------------------------|
E |-8-8-8-8-8-8-8-8-5-5-5-5-7------------------|
B |-8-8-8-8-8-8-8-8-5-5-5-5-7------------------|
Gb|-6-6-6-6-6-6-6-6-3-3-3-3-5------------------|
B |--------------------------------------------|

Post-Chorus  2:08 (x4)
Db|--------------------------------------------|
Ab|--------------------------------------------|
E |--------------------------------------------|
B |-5-5--5-5--7-8-3----------------------------|
Gb|-5-5--5-5--7-8-3----------------------------|
B |-5-5--5-5--7-8-3----------------------------|

Bridge 2:20
Db|--------------------------------------------|
Ab|--------------------------------------------|
E |-5-5-5-5-5-5--------------------------------|
B |-5-5-5-5-5-5-3-3-5-5-5-5-5-5-3-3------------|
Gb|-3-3-3-3-3-3-3-3-5-5-5-5-5-5-3-3------------|
B |-------------3-3-5-5-5-5-5-5-3-3------------|
[ Tab from: https://www.guitartabs.cc/tabs/s/skillet/awake_and_alive_tab_ver_2.html ]
Db|--------------------------------------------|
Ab|--------------------------------------------|
E |-8-8-8-8-8-8-8-8-10-10-10-10-10-10-10-10----|
B |-8-8-8-8-8-8-8-8-10-10-10-10-10-10-10-10----|
Gb|-6-6-6-6-6-6-6-6-8--8--8--8--8--8--8--8-----|
B |--------------------------------------------|

Db|--------------------------------------------|
Ab|--------------------------------------------|
E |-5-5-5-5-5-5-5-5-7-7-7-7-7-7-7-7------------|
B |-5-5-5-5-5-5-5-5-7-7-7-7-7-7-7-7------------|
Gb|-3-3-3-3-3-3-3-3-5-5-5-5-5-5-5-5------------|
B |--------------------------------------------|

Solo - 2:37 
Guitar 1
Db|--------------------------------------------|
Ab|--------------------------------------------|
E |-8-8-8-8-8-8--------------------------------|
B |-8-8-8-8-8-8-10-10-5-5-5-5-5-5-3-3----------|
Gb|-6-6-6-6-6-6-8--8--5-5-5-5-5-5-3-3----------|
B |-------------------5-5-5-5-5-5-3-3----------|

Db|--------------------------------------------|
Ab|--------------------------------------------|
E |-8-8-8-8-8-8-8-8-10-10-10-10-0-0-0-0--------|
B |-8-8-8-8-8-8-8-8-10-10-10-10-0-0-0-0--------|
Gb|-6-6-6-6-6-6-6-6-8--8--8--8--0-0-0-0--------|
B |--------------------------------------------|

Guitar 2
Db|--------------------------------------------|
Ab|--------------------------------------------|
E |-----------------------10-10-8-7-8-7--------|
B |---------8-10-12-7b8-8---------------8-7----|
Gb|-8-10-12------------------------------------|
B |--------------------------------------------|

Db|--------------------------------------------|
Ab|-------8-------------------11---------------|
E |------------------10-12-14---14-12-14-------|
B |-7b8-8---10-12-13---------------------------|
Gb|--------------------------------------------|
B |--------------------------------------------|

Db|-------------15-17-18-17-15-----------------|
Ab|----------15---------------15---------------|
E |-14-15-17---------------------15-14---------|
B |--------------------------------------------|
Gb|--------------------------------------------|
B |--------------------------------------------|

Db|----------15-17-18/20-18-17-----------------|
Ab|-------15-------------------15--------------|
E |-14-15-------------------------15-14--------|
B |--------------------------------------------|
Gb|--------------------------------------------|
B |--------------------------------------------|

Db|--------------------------------------------|
Ab|----------------13----13-15-13-15-16--------|
E |-12-14-15-14-15----15-----------------------|
B |--------------------------------------------|
Gb|--------------------------------------------|
B |--------------------------------------------|

Db|-------13-15-17-18-20-22b23r22--22b23r22----|
Ab|-15-16--------------------------------------|
E |--------------------------------------------|
B |--------------------------------------------|
Gb|--------------------------------------------|
B |--------------------------------------------|

Db|--------------------------------------------|
Ab|--------------------------------------------|
E |--------------------------------------------|
B |-5-5--5--5-5---5----------------------------|
Gb|-5-5--5--5-5---5----------------------------|
B |-5-5--5--5-5---5----------------------------|

Chorus  2:53 (x3)
Db|--------------------------------------------|
Ab|--------------------------------------------|
E |------------3--3----------------------------|
B |-5--5-1--1--3--3-3--3-----------------------|
Gb|-5--5-1--1--1--1-3--3-----------------------|
B |-5--5-1--1-------3--3-----------------------|

Chorus  3:11
Db|--------------------------------------------|
Ab|--------------------------------------------|
E |-8-8-8-8-8-8-8-8-5-5-5-5-7--7--7------------|
B |-8-8-8-8-8-8-8-8-5-5-5-5-7--7--7------------|
Gb|-6-6-6-6-6-6-6-6-3-3-3-3-5--5--5------------|
B |--------------------------------------------|

Post-Chorus  3:17 (x4)
Db|--------------------------------------------|
Ab|--------------------------------------------|
E |--------------------------------------------|
B |-5-5--5-5--7-8-3----------------------------|
Gb|-5-5--5-5--7-8-3----------------------------|
B |-5-5--5-5--7-8-3----------------------------|