Ska P - Welcome To Hell Chords & Tabs

 

Welcome To Hell Chords & Tabs

Ska P Chords & Tabs

Version: 2 Type: Bass Tab

Welcome To Hell Bass Tab

Ska-P  Welcome to Hell


G|---------------------------------|---------------------------------|
D|---------------------------------|---------------------------------|
A|---------------------------------|---------------------------------|
E|---------------------------------|---------------------------------|
   1   +   2   +   3   +   4   +     1   +   2   +   3   +   4   + 

G|---------------------------------|---------------------------------|
D|---------------------------------|---------------------------------|
A|-0-0-3-5-0-0-3-5-0-0-3-5-6-0-5-3-|-0-0-3-5-0-0-3-5-0-0-3-5-6-0-5-3-|
E|---------------------------------|---------------------------------|
   1   +   2   +   3   +   4   +     1   +   2   +   3   +   4   + 

G|---------------------------------|---------------------------------|
D|---------------------------------|---------------------------------|
A|-0-0-3-5-0-0-3-5-0-0-3-5-6-0-5-3-|-0-0-3-5-0-0-3-5-0-0-3-5-6---6---|
E|---------------------------------|---------------------------------|
   1   +   2   +   3   +   4   +     1   +   2   +   3   +   4   + 

G|---------------------------------|---------------------------------|
D|-2-2---2-1-1---1-0-0---0---------|-2-2---2-1-1---1-0-0---0---------|
A|-----3-------3-------3---3-3---3-|-----3-------3-------3---3-------|
E|-----------------------------3---|-----------------------------3---|
   1   +   2   +   3   +   4   +     1   +   2   +   3   +   4   + 

G|---------------------------------|---------------------------------|
D|-2-2---2-1-1---1-0-0---0---------|-2-2---2-1-1---1-0-0---0---------|
A|-----3-------3-------3---3-3---3-|-----3-------3-------3---3-------|
E|-----------------------------3---|-----------------------------3---|
   1   +   2   +   3   +   4   +     1   +   2   +   3   +   4   + (BREAK)

G|---------------------------------|---------------------------------|
D|---------------------------------|---------------------------------|
A|---------3---5---6---5---3-------|---------3---5-------------------|
E|-5-----5---------------------3---|-5-----5---------3---2---3---4---|
   1   +   2   +   3   +   4   +     1   +   2   +   3   +   4   + 

G|---------------------------------|---------------------------------|
D|---------------------------------|---------------------------------|
A|---------3---5---6---5---3-------|-3---Ey--brother-WELCOME2HELL!!!-|
E|-5-----5---------------------3---|---------------------------------|
   1   +   2   +   3   +   4   +     1   +   2   +   3   +   4   + 

G|---------------------------------|---------------------------------|
D|---------------------------------|---------------------------------|
A|---------3---5---6---5---3-------|---------3---5-------------------|
E|-5-----5---------------------3---|-5-----5---------3-3-2---3---4---|
   1   +   2   +   3   +   4   +     1   +   2   +   3   +   4   + 

G|---------------------------------|---------------------------------|
D|---------------------------------|---------------------------------|
A|---------3---5---6---5---3-------|-3-----------------------6--5--3-|
E|-5-----5---------------------3---|---------------------------------|
   1   +   2   +   3   +   4   +     1   +   2   +   3   +   4   + 

G|---------------------------------|---------------------------------|
D|---------------------------------|---------------------------------|
A|-------------------------6--5--3-|---------3---------------6--5--3-|
E|-5-------------------------------|-5---5---------------------------|
   1   +   2   +   3   +   4   +     1   +   2   +   3   +   4   + 

G|---------------------------------|---------------------------------|
D|---------------------------------|---------------------------------|
A|-------------------------6--5--3-|---------3---------------6--5--3-|
E|-5-------------------------------|-5---5---------------------------|
   1   +   2   +   3   +   4   +     1   +   2   +   3   +   4   + 

G|---------------------------------|---------------------------------|
D|---------------------------------|---------------------------------|
A|-0-0-3-5-0-0-3-5-0-0-3-5-6-0-5-3-|-0-0-3-5-0-0-3-5-0-0-3-5-6-0-5-3-|
E|---------------------------------|---------------------------------|
   1   +   2   +   3   +   4   +     1   +   2   +   3   +   4   + 

G|---------------------------------|---------------------------------|
D|---------------------------------|---------------------------------|
A|-0-0-3-5-0-0-3-5-0-0-3-5-6-0-5-3-|-0-0-3-5-0-0-3-5-0-0-3-5-6---6---|
E|---------------------------------|---------------------------------|
   1   +   2   +   3   +   4   +     1   +   2   +   3   +   4   + (BREAK)

G|---------------------------------|---------------------------------|
D|---------------------------------|---------------------------------|
A|---------3---5---6---5---3-------|---------3---5-------------------|
E|-5-----5---------------------3---|-5-----5---------3---2---3---4---|
   1   +   2   +   3   +   4   +     1   +   2   +   3   +   4   + 

G|---------------------------------|---------------------------------|
D|---------------------------------|---------------------------------|
A|---------3---5---6---5---3-------|-3-------------------------------|
E|-5-----5---------------------3---|---------------------------------|
   1   +   2   +   3   +   4   +     1   +   2   +   3   +   4   + 

G|---------------------------------|---------------------------------|
D|---------------------------------|---------------------------------|
A|---------3---5---6---5---3-------|---------3---5-------------------|
E|-5-----5---------------------3---|-5-----5---------3-3-2---3---4---|
   1   +   2   +   3   +   4   +     1   +   2   +   3   +   4   + 

G|---------------------------------|---------------------------------|
D|---------------------------------|---------------------------------|
A|---------3---5---6---5---3-------|-3-----------------------6--5--3-|
E|-5-----5---------------------3---|---------------------------------|
   1   +   2   +   3   +   4   +     1   +   2   +   3   +   4   + 

G|---------------------------------|---------------------------------|
D|---------------------------------|---------------------------------|
A|-------------------------6--5--3-|---------3---------------6--5--3-|
E|-5-------------------------------|-5---5---------------------------|
   1   +   2   +   3   +   4   +     1   +   2   +   3   +   4   + 

G|---------------------------------|---------------------------------|
D|---------------------------------|---------------------------------|
A|-------------------------6--5--3-|---------3---------------6--5--3-|
E|-5-------------------------------|-5---5---------------------------|
   1   +   2   +   3   +   4   +     1   +   2   +   3   +   4   + 

G|---------------------------------|---------------------------------|
D|---------------------------------|---------------------------------|
A|---------------------------------|---------------------------------|
E|-5---5---------------------------|-3---3---------------------------|
   1   +   2   +   3   +   4   +     1   +   2   +   3   +   4   + 

G|---------------------------------|---------------------------------|
D|---------------------------------|---------------------------------|
A|---------------------------------|-----------------5---------------|
E|-5---5---------------------------|-3---3---------------------------|
   1   +   2   +   3   +   4   +     1   +   2   +   3   +   4   + 

G|---------------------------------|---------------------------------|
D|---------------------------------|---------------------------------|
A|-----------------3-3-3-3-3-3-3-3-|-----------------5-5-5-5-5-5-3-5-|
E|-5-5-5-5-5-5-5-5-----------------|-3-3-3-3-3-3-3-3-----------------|
   1   +   2   +   3   +   4   +     1   +   2   +   3   +   4   + 

G|---------------------------------|---------------------------------|
D|---------------------------------|---------------------------------|
A|-----------------3-3-3-3-3-3-3-3-|-----------------5-5-5-5-5-5-3-5-|
E|-5-5-5-5-5-5-5-5-----------------|-3-3-3-3-3-3-3-3-----------------|
   1   +   2   +   3   +   4   +     1   +   2   +   3   +   4   + 

G|---------------------------------|---------------------------------|
D|---------------------------------|---------------------------------|
A|-----------------3-3-3-3-3-3-3-3-|-----------------5-5-5-5-5-5-3-5-|
E|-5-5-5-5-5-5-5-5-----------------|-3-3-3-3-3-3-3-3-----------------|
   1   +   2   +   3   +   4   +     1   +   2   +   3   +   4   + 
[ Tab from: https://www.guitartabs.cc/tabs/s/ska_p/welcome_to_hell_btab_ver_2.html ]
G|---------------------------------|---------------------------------|
D|---------------------------------|---------------------------------|
A|-----------------3-3-3-3-3-3-3-3-|-----------------5-5-5-5-5-5-5-5-|
E|-5-5-5-5-5-5-5-5-----------------|-3-3-3-3-3-3-3-3-----------------|
   1   +   2   +   3   +   4   +     1   +   2   +   3   +   4   + 

G|---------------------------------|---------------------------------|
D|-2-2---2-1-1---1-0-0---0---------|-2-2---2-1-1---1-0-0---0---------|
A|-----3-------3-------3---3-------|-----3-------3-------3---3-------|
E|-----------------------------3---|-----------------------------3---|
   1   +   2   +   3   +   4   +     1   +   2   +   3   +   4   + 

G|---------------------------------|---------------------------------|
D|-2-2---2-1-1---1-0-0---0---------|-2-2---2-1-1---1-0-0---0---------|
A|-----3-------3-------3---3-------|-----3-------3-------3---3-------|
E|-----------------------------3---|-----------------------------3---|
   1   +   2   +   3   +   4   +     1   +   2   +   3   +   4   + (BREAK)

G|---------------------------------|---------------------------------|
D|---------------------------------|---------------------------------|
A|-0-0-3-5-0-0-3-5-0-0-3-5-6-0-5-3-|-0-0-3-5-0-0-3-5-0-0-3-5-6-0-5-3-|
E|---------------------------------|---------------------------------|
   1   +   2   +   3   +   4   +     1   +   2   +   3   +   4   + 

G|---------------------------------|---------------------------------|
D|---------------------------------|---------------------------------|
A|-0-0-3-5-0-0-3-5-0-0-3-5-6-0-5-3-|-0-0-3-5-0-0-3-5-0-0-3-5-6---6---|
E|---------------------------------|---------------------------------|
   1   +   2   +   3   +   4   +     1   +   2   +   3   +   4   + (BREAK)

G|---------------------------------|---------------------------------|
D|---------------------------------|---------------------------------|
A|---------3---5---6---5---3-------|---------3---5-------------------|
E|-5-----5---------------------3---|-5-----5---------3-3-2---3---4---|
   1   +   2   +   3   +   4   +     1   +   2   +   3   +   4   + 

G|---------------------------------|---------------------------------|
D|---------------------------------|---------------------------------|
A|---------3---5---6---5---3-------|-3-------------------------------|
E|-5-----5---------------------3---|---------------------------------|
   1   +   2   +   3   +   4   +     1   +   2   +   3   +   4   + 

G|---------------------------------|---------------------------------|
D|---------------------------------|---------------------------------|
A|---------3---5---6---5---3-------|---------3---5-------------------|
E|-5-----5---------------------3---|-5-----5---------3-3-2---3-3-4---|
   1   +   2   +   3   +   4   +     1   +   2   +   3   +   4   + 

G|---------------------------------|---------------------------------|
D|---------------------------------|---------------------------------|
A|---------3---5---6---5---3-------|-3---Ey--brother-WELCOME---------|
E|-5-----5---------------------3---|---------------------------------|
   1   +   2   +   3   +   4   +     1   +   2   +   3   +   4   + 

G|---------------------------------|---------4-x---------------------|
D|---------------------------------|-x-2-2-------2-------------------|
A|---------3-3-------------3-3-----|-------------------x-5-------3-5-|
E|-5---5-5-----5-x---5-5-5-----5-x-|-------------------------3-5-----|
   1   +   2   +   3   +   4   +     1   +   2   +   3   +   4   + 

G|---------------------------------|---------4-4---------------------|
D|---------------------------------|---x-2-------2-------------------|
A|---------3-3-------------3-3-----|-------------------x-5-3-----3-5-|
E|-----5-------5-----5-5-5-----5---|-------------------------3-5-----|
   1   +   2   +   3   +   4   +     1   +   2   +   3   +   4   + 

G|---------------------------------|---------4-4---------------------|
D|---------------------------------|-----2-2-----2-------------------|
A|---------3-3-------------3-3-----|-------------------x-5-------3-5-|
E|-----5-------5---x-5-5-5-----5---|-------------------------3-5-----|
   1   +   2   +   3   +   4   +     1   +   2   +   3   +   4   + 

7|---------------------------------|-----------------------------5-7~|
D|---------------------------------|-------------------------5-7-----|
A|---------3-3-------------3-3-----|---------2-2---------------------|
E|-----5-5-----5-------5-5-----5---|-0---0-------0-------------------|
   1   +   2   +   3   +   4   +     1   +   2   +   3   +   4   + 

G|~7b------------------------------|---------4-4---------------------|
D|---------------------------------|---x-2-2-----2-------------------|
A|---------3-3-------------3-3-----|---------------------5-------3-5-|
E|-------------5-x---x-5-5-----5---|-------------------------3-5-----|
   1   +   2   +   3   +   4   +     1   +   2   +   3   +   4   + 

G|---------------------------------|---------4-4---------------------|
D|---------------------------------|-2---2-------2-------------------|
A|---------3-3-------------3-3-----|-----------------5---5---6--5--3-|
E|-----5-5-----5-x---x-5-5-----5---|---------------------------------|
   1   +   2   +   3   +   4   +     1   +   2   +   3   +   4   + 

G|---------------------------------|---------------------------------|
D|---------------------------------|---------------------------------|
A|-------------------------6--5--3-|---------3---------------6--5--3-|
E|-5-------------------------------|-5---5---------------------------|
   1   +   2   +   3   +   4   +     1   +   2   +   3   +   4   + 

G|---------------------------------|---------------------------------|
D|---------------------------------|---------------------------------|
A|-------------------------6--5--3-|---------3---------------6--5--3-|
E|-5-------------------------------|-5---5---------------------------|
   1   +   2   +   3   +   4   +     1   +   2   +   3   +   4   + 

G|---------------------------------|---------------------------------|
D|---------------------------------|---------------------------------|
A|---------------------------------|---------------------------------|
E|-5---5---------------------------|-3---3---------------------------|
   1   +   2   +   3   +   4   +     1   +   2   +   3   +   4   + 

G|---------------------------------|---------------------------------|
D|---------------------------------|---------------------------------|
A|-----------------3---3-----------|-----------------5---------------|
E|-5---5---------------------------|-3---3---------------------------|
   1   +   2   +   3   +   4   +     1   +   2   +   3   +   4   + 

G|---------------------------------|---------------------------------|
D|---------------------------------|---------------------------------|
A|-----------------3-3-3-3-3-3-3-3-|-----------------5-5-5-5-5-5-3-5-|
E|-5-5-5-5-5-5-5-5-----------------|-3-3-3-3-3-3-3-3-----------------|
   1   +   2   +   3   +   4   +     1   +   2   +   3   +   4   + 

G|---------------------------------|---------------------------------|
D|---------------------------------|---------------------------------|
A|-----------------3-3-3-3-3-3-3-3-|-----------------5-5-5-5-5-5-3-5-|
E|-5-5-5-5-5-5-5-5-----------------|-3-3-3-3-3-3-3-3-----------------|
   1   +   2   +   3   +   4   +     1   +   2   +   3   +   4   + 

G|---------------------------------|---------------------------------|
D|---------------------------------|---------------------------------|
A|-----------------3-3-3-3-3-3-3-3-|-----------------5-5-5-5-5-5-3-5-|
E|-5-5-5-5-5-5-5-5-----------------|-3-3-3-3-3-3-3-3-----------------|
   1   +   2   +   3   +   4   +     1   +   2   +   3   +   4   + 

G|---------------------------------|---------------------------------|
D|---------------------------------|---------------------------------|
A|-----------------3-3-3-3-3-3-3-3-|-----------------5-5-5-5-5-5-5-5-|
E|-5-5-5-5-5-5-5-5-----------------|-3-3-3-3-3-3-3-3-----------------|
   1   +   2   +   3   +   4   +     1   +   2   +   3   +   4   + 

G|---------------------------------|---------------------------------|
D|-2-2---2-1-1---1-0-0---0---------|-2-2---2-1-1---1-0-0---0---------|
A|-----3-------3-------3---3-------|-----3-------3-------3---3-------|
E|-----------------------------3---|-----------------------------3---|
   1   +   2   +   3   +   4   +     1   +   2   +   3   +   4   + 

G|---------------------------------|---------------------------------|---||
D|-2-2---2-1-1---1-0-0---0---------|-2-2---2-1-1---1-0-0---0---------|---||
A|-----3-------3-------3---3-------|-----3-------3-------3---3-------|---||
E|-----------------------------3---|-----------------------------3---|-5-||
   1   +   2   +   3   +   4   +     1   +   2   +   3   +   4   + (BREAK)