Siouxsie And The Banshees - Hong Kong Garden Chords & Tabs

 

Hong Kong Garden Chords & Tabs

Siouxsie And The Banshees Chords & Tabs

Version: 1 Type: Tab

Hong Kong Garden Tab

Jason McCombe: elementjmc39@hotmail.com

_____________________________________________________________________


E -121212-15-15--15--12-17--15--12--12-12---------------------|
B -121212--15--15--15--12-17--15--12--12-12---------------------|
G ----------------------------------------------------------------|
D ----------------------------------------------------------------|
A ----------------------------------------------------------------|
E ----------------------------------------------------------------|


E -1212--10--13--13--13--10--15--13--12--10-----------------------|
B -1212--10--13--13--13--10--15--13--12--10-----------------------|
G ----------------------------------------------------------------|
D ----------------------------------------------------------------|
A ----------------------------------------------------------------|
E ----------------------------------------------------------------|

_____________________________________________________________________
[ Tab from: https://www.guitartabs.cc/tabs/s/siouxsie_and_the_banshees/hong_kong_garden_tab.html ]
E -121212-12-12--141414-14-14--121212-12-12-12-12-----------------|
B -131313-13-13--151515-15-15--121212-12-12-12-12-----------------|
G -121212-12-12--141414-14-14-------------------------------------|
D ----------------------------------------------------------------|
A ----------------------------------------------------------------|
E ----------------------------------------------------------------|

E -121212-12-12--141414-14-14--12-12-15-15-12---------------------|
B -131313-13-13--151515-15-15--12-12-15-15-12---------------------|
G -121212-12-12--141414-14-14-------------------------------------|
D ----------------------------------------------------------------|
A ----------------------------------------------------------------|
E ----------------------------------------------------------------|

E -121212-12-12--141414-14-14--12-12-15-15-12---------------------|
B -131313-13-13--151515-15-15--12-12-15-15-12---------------------|
G -121212-12-12--141414-14-14-------------------------------------|
D ----------------------------------------------------------------|
A ----------------------------------------------------------------|
E ----------------------------------------------------------------|

E -10-10--13--13--13--10--15--13--12--10--------------------------|
B -10-10--13--13--13--10--15--13--12--10--------------------------|
G ----------------------------------------------------------------|
D ----------------------------------------------------------------|
A ----------------------------------------------------------------|
E ----------------------------------------------------------------|

_____________________________________________________________________