Silverstein - Discovering The Waterfront Chords & Tabs

 

Discovering The Waterfront Chords & Tabs

Silverstein Chords & Tabs

Version: 6 Type: Tab

Discovering The Waterfront Tab

   
Discovering The Waterfront

Silverstein
Discovering The Waterfront
Discovering The Waterfront
2005
Standard Tuning

First of all i just wanted to say that i am banned so i can not clear up any confusions
the tab.

[12/29/2006 - 08:21 pm] by fret13 : |
actually shane plays nothing they just record tree guitars and only play two in concert.

well yeah i went by the recorded version so i put all 3 parts.

(3/05/07)Ncbob415 yes this is my tab, can you give me the site you saw it on so i can have it removed?


Guitar 1

Intro Clean
e----------0----------0---------0---------0---------0-------0-0~---|
b--------3----------3---------3---------3---------3-------3---3~---|
g------0----------0---------0---------0---------0--------0----0~---|
d----4----------4---------4---------4---------4--------4------4~---|
a--2----------0------------------------------2--------0-------2~---|
E------------------------3--------3---------------------------3~---|

Verse Clean x6                                   End On
e----------0-------0---------0---------0----|---0~|
b--------3--------3--------3---------3------|---3~|
g------0--------0--------0---------0--------|---0~|
d----4---------4-------4---------4----------|---4~|
a--2---------0------------------------------|---2~|
E---------------------3---------3-----------|---3~|

Pre-chorus Distortion x2
e-----------------------------------------------|
b-----------------------------------------------|
g--4-4-4-4-4--7-7-7-7-7--9-9-9-9-9--------------|
d--4-4-4-4-4--7-7-7-7-7--9-9-9-9-9---5-5-5-5-5--|
a--2-2-2-2-2--5-5-5-5-5--7-7-7-7-7---5-5-5-5-5--|
E------------------------------------3-3-3-3-3--|

Chorus x2
e---------------------------------------------------|
b---------------------------------------------------|
g--4-4-4-4-4-4-7-7-7-7-7-7-9-9-9-9-9-9--------------|
d--4-4-4-4-4-4-7-7-7-7-7-7-9-9-9-9-9-9-5-5-5-5-5-5--|
a--2-2-2-2-2-2-5-5-5-5-5-5-7-7-7-7-7-7-5-5-5-5-5-5--|
E--------------------------------------3-3-3-3-3-3--|


For the second Verse, Shane (lead singer) pulls out a guitar and plays this plays this,
YES!!! he does it says in the booklet.

Verse Clean x6                                   End On
e----------0-------0---------0---------0----|---0~|
b--------3--------3--------3---------3------|---3~|
g------0--------0--------0---------0--------|---0~|
d----4---------4-------4---------4----------|---4~|
a--2---------0------------------------------|---2~|
E---------------------3---------3-----------|---3~|

Neil plays this
e-----------------------------------------------------------------------------------------------------------------|
b-----------------------------------------------------------------------------------------------------------------|
g14h16-14------------------------14h16-14--------------11h12-11--------------------------------------------------|
d-----------------12-14---7---7h9----------------12-14---------------------7-9~---7-9~----------------------------|
a---------------------------------------------------------------------------------------------------10//0---------|
E-------------------------------------------------------------------------------------------------------------0-2-|

Note-live Shane (lead singer) doesnt actually play the normal verse they just dont
it at all so
get hasty if you see them live and they dont play that part.

Pre-chorus

I use a flange and delay for the second Pre Chorus and Chorus
Note Not exact strumming for pre chorus and chorus
Not too hard to find out so just do it

Pre Chorus x2
e--b-12-12-12-12-12-12-12-12-12-12-12-12-12--|
b--b-10-10-10-10-10-10-10-10-10-10-10-10-10--|
g--------------------------------------------|
d--------------------------------------------|
a--------------------------------------------|
E--------------------------------------------|

Chorus x1
e--13b-15-15-15-15-15-15-15-15-15-15-17-17-17-17-17-17-17-17-17-17-17--|
b--11b-13-13-13-13-13-13-13-13-13-13-17-17-17-17-17-17-17-17-17-17-17--|
g----------------------------------------------------------------------|
d----------------------------------------------------------------------|
a----------------------------------------------------------------------|
E----------------------------------------------------------------------|

[ Tab from: https://www.guitartabs.cc/tabs/s/silverstein/discovering_the_waterfront_tab_ver_6.html ]
Bridge x4
e----------------------------------------------------------------------------------|
b----------------------------------------------------------------------------------|
g------------------------------------12-11--7--4-v-5/4-4-v-5/4---7-7-7-7-7-7-7-7---|
d--5-5-5-5-5-5-5-5--7-7-7-7-7-7-7-7---x--x--x--x-v-x-x-x-v-x-x---x-x-x-x-x-x-x-x---|
a--5-5-5-5-5-5-5-5--7-7-7-7-7-7-7-7--10--9--5--2-v3/22-v3/2---5-5-5-5-5-5-5-5---|
E--3-3-3-3-3-3-3-3--5-5-5-5-5-5-5-5------------------------------------------------|
Interlude
e------------10-10-----------------------------10-10------------10------------10-10-|
b-----------------------------------------------------------------------------------|
g---11h12p11---------12-11h12p11-----11h12p11----------12-11h12----11h12p11---------|
d---------------------------------12------------------------------------------------|
a-----------------------------------------------------------------------------------|
E-----------------------------------------------------------------------------------|

Cont.                                                                           One
time do this at end
e-------------------------------10-10---10-12---|-10-10---10-12-14-|
b-----------------------------------------------|------------------|
g---12-11h12p11-----11h12p11--------------------|------------------|
d----------------12-----------------------------|------------------|
a-----------------------------------------------|------------------|
E-----------------------------------------------|------------------|

Play Pre-Chorus x1

Then Chorus to End

End on
e---------|
b---------|
g---------|
d--2------|
a--2------|
E--0--|

Guitar 2

For the intro and verse Guitar 2 does some weird chord with an effect but I am unsure on
exactly he does
So for Guitar 2 just dont do any thing


Pre-Chorus x2
e------------------------------------------------------|
b------------------------------------------------------|
g--4-4-4-4-4--7-7-7-7-7--9-9-9-9-9--12-12-12-12-12-----|
d--x-x-x-x-x--x-x-x-x-x--x-x-x-x-x---x--x--x--x--x-----|
a--2-2-2-2-2--5-5-5-5-5--7-7-7-7-7--10-10-10-10-10-----|
E------------------------------------------------------|

Chorus
e----------------------------------------------------------|
b----------------------------------------------------------|
g--4-4-4-4-4-4-7-7-7-7-7-7-9-9-9-9-9-9-12-12-12-12-12-12---|
d--x-x-x-x-x-x-x-x-x-x-x-x-x-x-x-x-x-x-x--x--x--x--x--x----|
a--2-2-2-2-2-2-5-5-5-5-5-5-7-7-7-7-7-7-10-10-10-10-10-10---|
E----------------------------------------------------------|

Verse
Either play nothing or find it out your self because it has no easy way of being able to
out

Prechorus x2

Chorus x2

Bridge x4
e--------------------------------------------------------------------|
b--------------------------------------------------------------------|
g--------------------------------------------------------------------|
d--5-5-5-5-5-5-5-5-5-5-5-5-5-5-5-5-7-7-7-7-7-7-7-7-7-7-7-7-7-7-7-7---|
a--5-5-5-5-5-5-5-5-5-5-5-5-5-5-5-5-7-7-7-7-7-7-7-7-7-7-7-7-7-7-7-7---|
E--3-3-3-3-3-3-3-3-3-3-3-3-3-3-3-3-5-5-5-5-5-5-5-5-5-5-5-5-5-5-5-5---|

Cont.
e--------------------------------------------------------------------|
b--------------------------------------------------------------------|
g----------------------------------7-7-7-7-7-7-7-7-7-7-7-7-7-7-7-7---|
d--9-9-9-9-9-9-9-9-9-9-9-9-9-9-9-9-7-7-7-7-7-7-7-7-7-7-7-7-7-7-7-7---|
a--9-9-9-9-9-9-9-9-9-9-9-9-9-9-9-9-5-5-5-5-5-5-5-5-5-5-5-5-5-5-5-5---|
E--7-7-7-7-7-7-7-7-7-7-7-7-7-7-7-7-----------------------------------|
Interlude
With Delay
e---------------------------|
b---------------------------|
g---------------------------|
d---x//////x-----x\\\\\\\x--|
a--x//////x-----x\\\\\\\x--|
E---x//////x-----x\\\\\\\x--|

Watch music video or live DVD to know what I mean if this doesnt make sense. Just mute
slide up and down the neck of the guitar. You can hear it at the beginning of the interlude.

Play Pre-chorus x2
Chorus x2

Then play this
e-------------|
b-------------|
g5~--10\9~---|
dx~---x\x~---|
a3~---8\7~---|
E-------------|

End on

e------|
b------|
g------|
d-10~--|
ax~---|
E8~---|

I am about 95% positive this tab is right
I will update the Guitar 2 verse when I can.

Key
b-bend
v-vibrato
h-hammer on
p-pull off
~-ring out