Silverstein - Call It Karma Chords & Tabs

 

Call It Karma Chords & Tabs

Silverstein Chords & Tabs

Version: 4 Type: Tab

Call It Karma Tab

   
-----------------------------------------------------------------------
CALL IT KARMA - Silverstein
-----------------------------------------------------------------------
Tabbed by: Blacksg
Email: Madar89@aol.com

Tuning: Dropped D

I usually donít like dropped d tuning but for this kick-ass song Iíll make the exception.
Pay attention to all of my special advice in parenthesis, learn the parts first and then
look to the song structure to put it all together. Itís an easy song put a great song at
that.
HAVE FUN AND ENJOY!!! 

SONG STRUCTURE
Intro/Verse
Pre-Chorus
Intro/Verse
Pre-Chorus
Chorus
Solo/Interlude (you decide what it is)
Pre-Chorus
Chorus
Bridge
Outro

Symbols
| /  slide up
| \  slide down
| h  hammer-on
| p  pull-off
| ~  let ring
| x  Mute note

Intro/Verse 
Guitar 1
e|--------------------------------------------------------------------|
B|--------------------------------------------------------------------|
G|-12x-10p9x-9---(16 times)-------------------------------------------|
D|--------------------------------------------------------------------|
A|--------------------------------------------------------------------|
D|--------------------------------------------------------------------|

Guitar 2
e|--------------------------------------------------------------------|
B|--------------------------------------------------------------------|
G|--------------------------------------------------------------------|
D|-3333333333333-777777777777-----------------------------------------|
A|-3333333333333-777777777777ó(4 times)-------------------------------|
D|-3333333333333-777777777777-----------------------------------------|
p.m. . . . . . . . . . . . . .

Pre-Chorus 
Guitar 1
e|--------------------------------------------------------------------|
B|----------------------------8-8-8-8-8-8--8-8-8-8-8-8--888888888888--|
G|----------------------------121212121212-101010101010-999999999999--|
D|-000000000000--333333333333-----------------------------------------|
A|-000000000000ó-333333333333-----------------------------------------|
D|-000000000000--333333333333-----------------------------------------

Guitar 2
e|--------------------------------------------------------------------|
B|--------------------------------------------------------------------|
G|--------------------------------------------------------------------|
D|-000000000000ó-333333333333-777777777777-101010101010101010101010---|
A|-000000000000--333333333333-777777777777-101010101010101010101010---|
D|-000000000000--333333333333-777777777777-101010101010101010101010---|
Chorus (listen for strumming patterns)
Guitar 1 (play 4 times)                        Play on 1st and 3rd time
e|------------------------------------------------------------------|
B|------------------------------------------------------------------|
G|------------------------------------------------------------------|
D|-101010101010101010101010/12\10-141414141414141414141414\12/14----|
A|------------------------------------------------------------------|
D|------------------------------------------------------------------|
 Play 2nd time  Play on the 4th time       
e|------------------------------------------------------------------|
B|------------------------------------------------------------------|
G|------------------------------------------------------------------|
D|-17-15-14-17--171717171717171717171717----------------------------|
A|------------------------------------------------------------------|
D|------------------------------------------------------------------|
[ Tab from: https://www.guitartabs.cc/tabs/s/silverstein/call_it_karma_tab_ver_4.html ]
Guitar 2 (play 4 times)
e|--------------------------------------------------------------------|
B|--------------------------------------------------------------------|
G|--------------------------------------------------------------------|
D|-333333333333-777777777777------------------------------------------|
A|-333333333333-777777777777------------------------------------------|
D|-333333333333-777777777777------------------------------------------|

Solo/Interlude
e|--------------------------------------------------/8-7-8-7-8-7-7-8--|
B|-----5h6p5-5h6p5-------5h6p5-5h6h8-8-6-5-8-6-5-5------6---8---------|
G|---5-------------5---5------------5-----------5-5-------------------|
D|-3-----------------3------------------------------------------------|
A|--------------------------------------------------------------------|
D|--------------------------------------------------------------------|
                              Play this part fast               
e|-10-8-7-7-15-13-12-15-13-12-151312-151312-151312-151312-151312----|
B|-------8------------------------------------------------------------|
G|--------------------------------------------------------------------|
D|--------------------------------------------------------------------|
A|--------------------------------------------------------------------|
D|--------------------------------------------------------------------|

Bridge (Both Guitars Clean)
Guitar 1 (play 2 times and listen for tempo and when to start)
e|--------------------------------------------------------------------|
B|--------------------------------------------------------------------|
G|--------------------------------------------------------------------|
D|-3-2-0-2-3---3-2-0---0---5-3-2-0-2---5-3-2-0-2----------------------|
A|-------------------3------------------------------------------------|
D|--------------------------------------------------------------------|
Guitar 2
e|--------------------------------------------------------------------|
B|--------------------------------------------------------------------|
G|--------------------------------------------------------------------|
D|--------------------------------------------------------------------|
A|-0000000000000000---------------------------------------------------|
D|------------------5555555555555555-33333333333333333333333333333333-|


Outro
Both guitars are the same but only guitar 1 plays the 8ís on the       e-string
play 1st and 3rd time 2nd,4th,and 5th time
e|---------/88888888------------------------------------------------|
B|------------------------------------------------------------------|
G|------------------------------------------------------------------|
D|-7x-7x-7x----------7777777777777777--5555555555555555-333333333333|
A|-7x-7x-7x----------7777777777777777--5555555555555555-333333333333|
D|-7x-7x-7x----------7777777777777777--5555555555555555-333333333333|

e|--------------------------------------------------------------------|
B|--------------------------------------------------------------------|
G|--------------------------------------------------------------------|
D|-33333333333333333333-----------------------------------------------|
A|-33333333333333333333-----------------------------------------------|
D|-33333333333333333333-----------------------------------------------|
(very last time of outro, 6th time)
e|--------------------------------------------------------/88888888---|
B|--------------------------------------------------------------------|
G|--------------------------------------------------------------------|
D|-7777777777777777-5555555555555555-33333x-3-333-3x-3x-3x---------7~~|
A|-7777777777777777-5555555555555555-33333x-3-333-3x-3x-3x---------7~~|
D|-7777777777777777-5555555555555555-33333x-3-333-3x-3x-3x---------7~~|

=======================================================================