Sigur Ros - Gobbledigook Chords & Tabs

 

Gobbledigook Chords & Tabs

Sigur Ros Chords & Tabs

Version: 2 Type: Bass Tab

Gobbledigook Bass Tab

-------------------------------------------------------------------------------
                             Gobbledigook - Sigur Rs
-------------------------------------------------------------------------------
Tabbed by: Brian Kircher
E-mail: b.t.kircher@gmail.com

Tuning:Standard
Fingerpicked

(The other version is close, but there were some incorrect and missing notes.)

Verse 1
[ hatta fjka ltur  loft]
G|----------------------------------|
D|----------------------------------|
A|----5~----------------------------|x2
E|---------2~-3~-2~-3~-0~-2~--------|

[ nei, ekki  ]
G|-------------------|
D|-------------------|
A|-------------------|
E|----5~---7~-5-3----|

Interlude  (no bass)

Verse 2 (same as verse 1)

Chorus 1(Some consider it the Bridge) 
[Vindur  hrinu  ]
G|--------------------------------------|
D|--------------------------------------|
A|--------------------------------------|x3
E|--3-3-3-3-3-3-3-3-2-2--5-5-5-5-7-7-7-7|
[ Tab from: https://www.guitartabs.cc/tabs/s/sigur_ros/gobbledigook_btab_ver_2.html ]
                         [Vindur ]  
G|-------------------------------------|
D|-------------------------------------|
A|-------------------------------------|
E|--3-3-3-3-3-3-3-3-2-2--5-5-5-5-5-5-5-|

Interlude  (No bass)

Verse 3 (same as verse 1)

Chorus 2 (Same as chorus 1)

Outro (Come in with the guitar)
(Lalalala lalalala : Lalalala)
G|-------------------|---------------------|-------------|
D|-------------------|---------------------|-------------|
A|-------------------|---------------------|-------------|
E|--3--5--7--2--3--5-|-2--3--5--7--2--3--5-|-2--3--5--7--|

G|----------------------------|
D|----------------------------|
A|----------------------5~~~~~|
E|--2--3--5--2--3--5----------|

Legend:
~ = Sustained note (not vibrato)


Let me say something about the time signature. 
It confuses the hell out of me. I'm new to music theory, and I couldn't wrap
my brain around this one. Here's a link to a discussion about it.

http://forums.xkcd.com/viewtopic.php?f=23&t=73611