Shocking Blue - Venus Chords & Tabs

 

Venus Chords & Tabs

Shocking Blue Chords & Tabs

Version: 1 Type: Bass Tab

Venus Bass Tab

Venus  Shocking Blue  Bass Tab


  Play twice for intro and bridge

G-----------------|
D-----------------|
A-----------------|
E--7-7-7-7--777---|

  Repeat during verse

G------------------|
D------5---7-7-9-7-|
A--7-7---7---------|
E------------------|

  Chorus
[ Tab from: https://www.guitartabs.cc/tabs/s/shocking_blue/venus_btab.html ]
G------5---7-7-9-7-|-----5---7-7-9-7--|-----------------|-----------------|
D--7-7---7---------|-7-7---7----------|-----5---7-7-9-7-|-----5---7-7-9-7-|
A------------------|------------------|-7-7---7---------|-7-7---7---------|
E------------------|------------------|-----------------|-----------------|
   Shes got it     Yeah baby, shes    got it

G-----------------|-------------------|-----------------|-----------------|
D--10-------------|--9----------------|-----5---7-7-9-7-|-----5---7-7-9-7-|
A-----------------|-------------------|-7-7---7---------|-7-7---7---------|
E-----------------|-------------------|-----------------|-----------------|
  Im your venus    Im your fireat your desire


Thats all what you need for the complete song.