Shihad - Shot In The Head Chords & Tabs

 

Shot In The Head Chords & Tabs

Shihad Chords & Tabs

Version: 1 Type: Bass Tab

Shot In The Head Bass Tab

   
Drop D ( D A D G )


Used Tab Symbols
_____________________
\  = Slide Down
:  = Let Ring

Intro x 8:

G|-------------------------------------------------------------|
D|-------------------------------------------------------------|
A|-5-----------------------------------------------------------|
D|----0---0--0--0-0-0------------------------------------------|



Verse x 16:

G|-------------------------------------------------------------|
D|-------------------------------------------------------------|
A|-5-----------------------------------------------------------|
D|----0---0--0--0-0-0------------------------------------------|



Chorus:

G|-------------------------------------------------------------|
D|-------------------------------------------------------------|
A|-------------------------------------------------------------|
D|-8-8-8--0-0-0-0--10-10-10-10-10-10-10-10---------------------|

G|-------------------------------------------------------------|
D|-------------------------------------------------------------|
A|-------------------------------------------------------------|
D|-8-8-8--0-0-0-0--10-10-10-10-10-10-10-10---------------------|

G|-------------------------------------------------------------|
D|-------------------------------------------------------------|
A|-------------------------------------------------------------|
D|-8-8-8--0-0-0-0--10-10-10-10-10-10-10-10---------------------|

G|-------------------------------------------------------------|
D|-------------------------------------------------------------|
A|-------------------------------------------------------------|
D|-8-8-8--0-0-0-0--10-10-10-10-10-10-10-10---------------------|



2nd Verse x 16:

G|-------------------------------------------------------------|
D|-------------------------------------------------------------|
A|-5-----------------------------------------------------------|
D|----0---0--0--0-0-0------------------------------------------|


Chorus:

G|-------------------------------------------------------------|
D|-------------------------------------------------------------|
A|-------------------------------------------------------------|
D|-8-8-8--0-0-0-0--10-10-10-10-10-10-10-10---------------------|

G|-------------------------------------------------------------|
D|-------------------------------------------------------------|
A|-------------------------------------------------------------|
D|-8-8-8--0-0-0-0--10-10-10-10-10-10-10-10---------------------|

G|-------------------------------------------------------------|
D|-------------------------------------------------------------|
A|-------------------------------------------------------------|
D|-8-8-8--0-0-0-0--10-10-10-10-10-10-10-10---------------------|

G|-------------------------------------------------------------|
D|-------------------------------------------------------------|
A|-------------------------------------------------------------|
D|-8-8-8--0-0-0-0--10-10-10-10-10-10-10-10---------------------|



Interlude:

G|-----------------------------------------------------------------|
D|-----------------------------------------------------------------|
A|-----------------------------------------------------------------|
D|-0:------------------------------0:------------------------------|


Bridge x 8:
[ Tab from: https://www.guitartabs.cc/tabs/s/shihad/shot_in_the_head_btab.html ]
G|-------------------------------------------------------------|
D|-------------------------------------------------------------|
A|----5/3-3/5----3/5--0---------------------------------------|
D|-0-----------0----------6-6--3-3----------------------------|



Verse riff:

G|-------------------------------------------------------------|
D|-------------------------------------------------------------|
A|------5------------------------5-----------------------------|
D|-12/-----0---0--0--0-0-0----------0---0--0--0-0-0------------|

G|-------------------------------------------------------------|
D|-------------------------------------------------------------|
A|-5--------------------------5--------------------------------|
D|----0---0--0--0-0-0------------0---0--0--0-0-0---------------|


Chorus:

G|-------------------------------------------------------------|
D|-------------------------------------------------------------|
A|-------------------------------------------------------------|
D|-8-8-8--0-0-0-0--10-10-10-10-10-10-10-10---------------------|

G|-------------------------------------------------------------|
D|-------------------------------------------------------------|
A|-------------------------------------------------------------|
D|-8-8-8--0-0-0-0--10-10-10-10-10-10-10-10---------------------|

G|-------------------------------------------------------------|
D|-------------------------------------------------------------|
A|-------------------------------------------------------------|
D|-8-8-8--0-0-0-0--10-10-10-10-10-10-10-10---------------------|

G|-------------------------------------------------------------|
D|-------------------------------------------------------------|
A|-------------------------------------------------------------|
D|-8-8-8--0-0-0-0--10-10-10-10-10-10-10-10---------------------|

G|-------------------------------------------------------------|
D|-------------------------------------------------------------|
A|-------------------------------------------------------------|
D|-8-8-8--0-0-0-0--10-10-10-10-10-10-10-10---------------------|

G|-------------------------------------------------------------|
D|-------------------------------------------------------------|
A|-------------------------------------------------------------|
D|-8-8-8--0-0-0-0--10-10-10-10-10-10-10-10---------------------|

G|-------------------------------------------------------------|
D|-------------------------------------------------------------|
A|-------------------------------------------------------------|
D|-8-8-8--0-0-0-0--10-10-10-10-10-10-10-10---------------------|

G|-------------------------------------------------------------|
D|-------------------------------------------------------------|
A|-------------------------------------------------------------|
D|-8-8-8--0-0-0-0--10-10-10-10-10-10-10-10---------------------|


Outro:
G|-------------------------------------------------------------|
D|-------------------------------------------------------------|
A|-5-5/6-5--5/6-5-5/6-5--3----5-5/6-5--5/6-5-5/6-5--3------|
D|-------------------------------------------------------------|

G|-------------------------------------------------------------|
D|-------------------------------------------------------------|
A|-5\0---------------------------------------------------------|
D|-------------------------------------------------------------|