Shearwater - Lost Boys Chords & Tabs

 

Lost Boys Chords & Tabs

Shearwater Chords & Tabs

Version: 2 Type: Tab

Lost Boys Tab

   
Intro
    Am
e-------0-----0-----0-----0---|
b-----3-----3-----3-----3-----|
g---2-----2-----2-----2-------|
d-----------------------------|
a-----------------------------| x2
E-----------------------------|

Fig.1. Verse (x2) until C, then jump to Am (Fig.2.)
    Am		      C
e-------0-----0-----0-----0-----3-----3-----3-----3-|
b-----3-----3-----3-----3-----6-----6-----6-----6---|
g---2-----2-----2-----2-----5-----5-----5-----5-----|
d---------------------------------------------------|
a---------------------------------------------------|
E---------------------------------------------------|

    Dm		      C     G       F
e-------1-----1-----1-----1---------------------------|
b-------------------------------1---------------1-----|
g-----2-----2-----2-----2---------------0---------2---|
d---0-----0-----0-----0-------2-------0-------3-----3-|
a---------------------------3---------------3---------|
E---------------------------------3-------1-----------|

    C      Am
e--------- ----0-----0-----0-----0-----0-----0-----0-----0-|
b-------1- --3-----3-----3-----3-----3-----3-----3-----3---|
g--------- ------2-----2-----2-----2-----2-----2-----2-----|
d-----2--- ------------------------------------------------|
a---3----- 0-----------------------------------------------|
E--------- ------------------------------------------------|

Fig.2.
    C      Am
e--------- --------------------------5--|
b-------1- ----1-----3-------7----------|
g---------- ----------------------------|
d-----2--- --2---2/4---4-4/5---5-5/7----|
a---3----- 0----------------------------|
E--------- -----------------------------|

    Dm                      Am
e-------1-----1-----1-----1---------------------------5-|
b-------------------------------1-----3-------7---------|
g-----2-----2-----2-----2-------------------------------|
d---0-----0-----0-----0-------2---2/4---4-4/5---5-5/7---|
a---------------------------0---------------------------|
E-------------------------------------------------------|
[ Tab from: https://www.guitartabs.cc/tabs/s/shearwater/lost_boys_tab_ver_2.html ]
    Dm                      C
e-------1-----1-----1-----1-----3------3-----3-----3-|
b----------------------------------------------------|
g-----2-----2-----2-----2----(0)----(0)---(0)---(0)--|
d---0-----0-----0-----0------------------------------|
a---------------------------3------3-----3-----3-----|
E----------------------------------------------------|

Fig.3.
    Am      C       Dm          C  G   F            E7
e---0-0-0-0-0-0-0-0-0-1-1-0-- --0--3---1---1--    --0--|
b---1-3-3-1-1-3-3-1-3-3-3-3-- --1--3---1---1--    --3--|
g---2-2-2-2-0-0-0-0-2-2-2-2-- --0--0---2---2--    --1--|
d---2-2-2-2-2-2-2-2-0-0-0-0-- --2--0---3---3--    --2--|
a---0-0-0-0-3-3-3-3---------- --3-(2)-(3)-(3)-    --2--|
E---------------------------- -----3---------- x3 --0--|

Outro
   Am
e------8-----8-----8-----8--|
b---10----10----10----10----|
g---------------------------|
d---------------------------|
a--0-----0-----0-----0------|
E---------------------------|


Lost Boys  Shearwater

   Am                 C
My blistered feet turn bloody
     Dm
So I take to the air
                          C         G F
And I am everywhere, I am starlight
         C    Am
Oh, I am moonlight


      Am                 C
Over burning fields and bodies
        Dm
I stay close to the ground
                                   C          G F
Slipping miles from the arches and arc-lights
         Am
Into the warm night

Dm Am Dm C

       Am
Winged children, all
                  C
Will fly over the mountain wall
       Dm
To the lid of the sky

And slice its belly full wide
            C           G F
Withe their warm knives
                       C        G F
Not the pin-pricks of starlight
                    C        G F
But to bathe in the bright blood
 E7                              Am
Of the world, of the world above