Shawn Mcdonald - Have You Ever Chords & Tabs

 

Have You Ever Chords & Tabs

Shawn Mcdonald Chords & Tabs

Version: 3 Type: Tab

Have You Ever Tab

standard tuning
capo on 5th fret
enjoy

E -------------------------------------------------------------------|
B --1-------1h3-------3-------3/5-------5------5\3--------3h0--------|
G -----0----------0------0-----------0----------------0---------0----|
D --------------0------------------0----------------0---------0------|
A --0-----0-----------2-----2-----------3------3\2--------2----------|
E -------------------------------------------------------------------|

E --------------------------------------------------|
B --1-------1h3-------3-------3p0-------0h1-----1---|
G -----0----------0------0----------0---------0-----|
D --------------0-----------------0---------0-------|
A --0-----0-----------2-----2-----------3-----------|
E --------------------------------------------------|

Verse:

E ------------------------------------------------------------|
B --1-----1-------1h3-------3-------3/5-------5------5\3------|
G ----0------0----------0------0-----------0----------------0-|
D --------------------0------------------0----------------0---| (play once)
A --0---0-0-----0-----------2-----2-----------3------3\2------|
E ------------------------------------------------------------|

E -------------------------------------------------------|
B ---1-------1h3-------3-------3/5-------5------5\3------|
G ------0----------0------0-----------0----------------0-|
D ---------------0------------------0----------------0---| (play 6 times)
A ---0-----0-----------2-----2-----------3------3\2------|
E -------------------------------------------------------|
[ Tab from: https://www.guitartabs.cc/tabs/s/shawn_mcdonald/have_you_ever_tab_ver_3.html ]
E ------------------------------------------|
B ---1-------1h3-------3-------3/5-------5--|
G ------0----------0------0-----------0-----|
D ---------------0------------------0-------|
A ---0-----0-----------2-----2-----------3--|
E ------------------------------------------|

Pre-Chorus/Chorus:

E --------------------------------------------------------------------|
B -5/8-------8p7------7-----7h8-------3------3/5--------5-------5/8--|
G -------0----------0----0----------0-----0-----------0-----0---------|
D ----------------0---------------0----------------0------------------|
A -3/7-----7----------5---5-----------2----2------------3----3--3/7-|
E --------------------------------------------------------------------|

^play once
E --------------------------------------------------------------------|
B --8-------8p7------7-----7h8-------3------3/5--------5-------5/8----|
G -----0----------0----0----------0-----0-----------0-----0-----------|
D --------------0---------------0----------------0--------------------|
A --7-----7----------5---5-----------2----2------------3----3--3/7----|
E --------------------------------------------------------------------|
^ play 5 times


E -------------------------------------------------------------------------|
B --8-------8p7------7-----7h8-------3------3/5--------5-------5/8-3p0---0-|
G -----0----------0----0----------0-----0-----------0-----0----------------|
D --------------0---------------0----------------0---------------------0---|
A --7-----7----------5---5-----------2----2------------3----3--3/7-2-------|
E -------------------------------------------------------------------------|