Shadows - Foot Tapper Chords & Tabs

 

Foot Tapper Chords & Tabs

Shadows Chords & Tabs

Version: 4 Type: Tab

Foot Tapper Tab

Foot Tapper bassline  Tabbed by Craig Dobson member of the Foottappers

G|------------------------------------------------------------------|
D|-----2-2----------------------------------------------------------|
A|-3-3-----3-2-0-0-3-3----------3-3---------------------------------|
E|--------------------5--3--1-1-----5--3-3--------------------------|


G|------------------------------------------------------------------|
D|----------------------------------------2-5-3-2-------------------|
A|-3-3--3-3----5-7--5-5---5-5---3-3---3-3---------5-3-2-0-2---------|
E|----3-----3-----------3-----3-----3-------------------------------|


G|------------------------------------------------------------------|
D|-----2-2----------------------------------------------------------|
A|-3-3-----3-2-0-0-3-3----------3-3---------------------------------|
E|--------------------5--3--1-1-----5--3-3--------------------------|


G|------------------------------------------------------------------|
D|----------------------------------------2-5-3-2-------------------|
A|-3-3--3-3----5-7--5-5---5-5---3-3---3-3---------5-3-2-0-2---------|
E|----3-----3-----------3-----3-----3-------------------------------|


G|------------------------------------------------------------------|
D|-----2-2----------------------------------------------------------|
A|-3-3-----3-2-0-0-3-3------------------------3-3-------------------|
E|--------------------5--3----------0-3-0-3-0-----------------------|


G|-0----------------0-----------------------------------------------|
D|---3-2-0---2h3p2-----3-2-0-----------------------0-0-0-0-0-5-5-5-5|
A|---------3-----------------3-0-0-0-0-0---------------------------|
E|----------------------------------------1-1-1-1-1-----------------|


G|------------------------------------------------------------------|
D|----------------------------------------2-5-3-2-------------------|
A|-3-3--3-3----5-7--5-5---5-5---3-3---3-3---------5-3-2-0-2---------|
E|----3-----3-----------3-----3-----3-------------------------------|

[ Tab from: https://www.guitartabs.cc/tabs/s/shadows/foot_tapper_tab_ver_4.html ]
G|------------------------------------------------------------------|
D|-----2-2----------------------------------------------------------|
A|-3-3-----3-2-0-0-3-3------------------------3-3-------------------|
E|--------------------5--3----------0-3-0-3-0-----------------------|


G|------------------------------------------------------------------|
D|-------------------2------------2-3---2-3-5-3-3----3-2---2-2------|
A|-----2-3-3-----3-5----5-5-----5------------------------5----------|
E|-3-5--------------------------------------------------------------|


G|------------------------------------------------------------------|
D|-2----------------------------------------------------------------|
A|---5--3-5-5---5--3-2-33----33-------------------------------------|
E|------------------------33----3-3-3-------------------------------|


G|-0----------------0-----------------------------------------------|
D|---3-2-0---2h3p2-----3-2-0-----------------------0-0-0-0-0-5-5-5-5|
A|---------3-----------------3-0-0-0-0-0---------------------------|
E|----------------------------------------1-1-1-1-1-----------------|


G|------------------------------------------------------------------|
D|----------------------------------------2-5-3-2-------------------|
A|-3-3--3-3----5-7--5-5---5-5---3-3---3-3---------5-3-2-0-2---------|
E|----3-----3-----------3-----3-----3-------------------------------|


G|------------------------------------------------------------------|
D|-----2-2----------------------------------------------------------|
A|-3-3-----3-2-0-0-3-3----------3-3---------------------------------|
E|--------------------5--3--1-1-----5--3-3--------------------------|


G|------------------------------------------------------------------|
D|-----2-2----------------------------------------------------------|
A|-3-3-----3-2-0-0-3-3------------------------3-3-------------------|
E|--------------------5--3----------0-3-0-3-0-----------------------|



G|------------------------------------------------------------------|
D|------------------------------------------------------------------|
A|--3-3----3-3-----------------3------------------------------------|
E|--------------0-1-2-3-5-7-8---------------------------------------|

Enjoy Shads fans!!