Shadows - Atlantis Chords & Tabs

 

Atlantis Chords & Tabs

Shadows Chords & Tabs

Version: 1 Type: Bass Tab

Atlantis Bass Tab

Atlantis Bassline  The Shadows
Tabbed by Craig Dobson
  |Intro                                                     |
G||----------------------------------------------------------|------|
D||-3-3------------------------3-3--------------------3-3-5-3|------|
A||-----3-0-1-1--------------------3-0-11--------------------|------|
E||-------------1-3--6-5-31-3------------1-3--6-5-3---------|------|


  |Verse
G||-----------------------------------------------------------------|
D||-3---3-3----3-3-3-3-3------------------------1-2-3-3-3-----------|
A||----------------------3-3-3-3-3-3--2--1--1-1-----------3--3-3-3--|
E||-----------------------------------------------------------------|

[ Tab from: https://www.guitartabs.cc/tabs/s/shadows/atlantis_btab.html ]
G|------------------------------------------------------------------|
D|---------------------------------3-4-5-5-5------------------------|
A|-3-3-2-0-0-0--5--5--5-4-2-2-2-2------------3-3-3-0-0-0-1-1-1------|
E|--------------------------------------------------------------3-3-|

                             |
G|------------|----------------|--------------|--------------|------|
D|------------|----------------|--------------|--------------|------|
A|---1-2-3-3-3|--Repeat Verse--|-Repeat Intro-|-Repeat Verse-|then--|
E|-3----------|----------------|--------------|--------------|------|

      Outro
G||-----------------------------------------------------------------|
D||-3-3------------------------3-3--------------------------3-3-----|
A||-----3-0-1-1--------------------3-0-11------6-6-6-6-6-6------3-3-|
E||-------------1-3--6-5-31-3------------1-3-----------------------|


G|-----------------------------|------------------------------------|
D|-3-3-----3-3-----3-3-----3-3-|------------------------------------|
A|-----3-3-----3-3-----3-3-----|------------------------------------|
E|-----------------------------|------------------------------------|