Session Road - Cool Off Chords & Tabs

 

Cool Off Chords & Tabs

Session Road Chords & Tabs

Version: 2 Type: Bass Tab

Cool Off Bass Tab

   
5 string bass po kaialngan dito..


[Intro]
G|------------------------------------------------------------------|
D|------------------------------------------------------------------|
A|------------------------------------------------------------------|
E|------------------------------------------------------------------|
A|-77xxxxxx77xx776644xxxxxx44xx442200xxxxxx00xx002244xxxxxx44xx4466-|

[Verse]
G|------------------------------------------------------------------|
D|------------------------------------------------------------------|
A|------------------------------------------------------------------|
E|------------------------------------------------------------------|
A|-77xxxxxx77xx776644xxxxxx44xx442200xxxxxx00xx002244xxxxxx44xx4466-|

G|------------------------------------------------------------------|
D|------------------------------------------------------------------|
A|------------------------------------------------------------------|
E|------------------------------------------------------------------|
A|-77xxxxxx77xx776644xxxxxx44xx442200xxxxxx00xx002244xxxxxx44xx4422-|

[Refrain]

G|------------------------|--------------------|
D|------------------------|--------------------|
A|------------------------|--------------------|
E|------------------------|--------------------|
A|-0-0-0-0---4-4-4-4-(3x)-|--2222222222222222--|

[Chorus]
[ Tab from: https://www.guitartabs.cc/tabs/s/session_road/cool_off_btab_ver_2.html ]
G|----------------------------------------------------------|
D|----------------------------------------------------------|
A|----------------------------------------------------------|
E|-----------444444444--------------------------------------|
A|-/77777777------------4444444422222222-------------------|

G|----------------------------------------------------------|
D|----------------------------------------------------------|
A|----------------------------------------------------------|
E|-----------444444444--------------------------------------|
A|-/77777777-----------444444442-2break--------------------|

[Solo]

G|-------------------------------------------|
D|-------------------------------------------|
A|-/4---4--6-7-6---/4---4-6-7-9-7-6-7-6------|
E|----4---------------4-----------------7-9--|
A|-------------------------------------------|

G|-----------------------------------------------------|
D|-----------------------------------------------------|
A|---7--911h12-11--12-12-11-9-11-9-7-9-7-6------------|
E|-9---------------------------------------------------|
A|-----------------------------------------------------|

G|-----------------------|
D|-----------------------|
A|-----------------------| (4x) 
E|-----------------------|
A|--444444444--22--00----|

[Verse 2]

|------------------------------------------------------------------|
|------------------------------------------------------------------|
|------------------------------------------------------------------|
|------------------------------------------------------------------|
|-77xxxxxx77xx776644xxxxxx44xx442200xxxxxx00xx002244xxxxxx44xx4466-|
 
|---------------------------------------------|
|---------------------------------------------|
|---------------------------------------------|
|---------------------------------------------|
|-77xxxxxx77xx776644xxxxxx44xx442200000pause--|