Serj Tankian - Unthinking Majority Chords & Tabs

 

Unthinking Majority Chords & Tabs

Serj Tankian Chords & Tabs

Version: 2 Type: Bass Tab

Unthinking Majority Bass Tab

   
----------------------------------------------------------------------------
	     The Unkthinking Majority - Serj Tankian
----------------------------------------------------------------------------

Originally Tabbed By : Emo=fights=yay
Retabbed By: Fenderjazzbass6
e-mail: micah.flinn@comcast.net

Tuning:Drop C

Riff 1
F|---------------------------------------------------------------------------|
C|---------------------------------------------------------------------------|
G|66666-66666-66666-6666444422222-22222-11111111-44444444--------------------| Repeat
C|---------------------------------------------------------------------------| x3

Riff 2
F|--------------------------------------------------------------------------|
C|--------------------------------------------------------------------------|
G|--2-3---2-3-----2-3------35---2-3---2-3-----3-2------3-5-----------------|
C|4-----4-----7-4------7-6-----4-----4-----7-4------7-6---------------------|

Riff 3
G|--------------------------------------------------------------------------|
D|--------------------------------------------------------------------------|
A|--2-3---2-3-----2-3-------------------------------------------------------|
E|4-----4-----7-4--------11-12-9-11-7-9-6-7---------------------------------|

Riff 1
F|---------------------------------------------------------------------------|
C|---------------------------------------------------------------------------|
G|66666-66666-66666-6666444422222-22222-11111111-44444444--------------------| Repeat
C|---------------------------------------------------------------------------| x2

Riff 4
G|--------------------------------------------------------------------------|
D|--------------------------------------------------------------------------|
A|--2-3---2-3-----2-3-----3-5---2-3---2-3-----2-3---------------------------|
E|4-----4-----7-4-----7-6-----4-----4-----7-4-------11-12-9-11-7-9-6-7------|
[ Tab from: https://www.guitartabs.cc/tabs/s/serj_tankian/unthinking_majority_btab_ver_2.html ]
Riff 1
F|---------------------------------------------------------------------------|
C|---------------------------------------------------------------------------|
G|66666-66666-66666-6666444422222-22222-11111111-44444444--------------------| Repeat
C|---------------------------------------------------------------------------| x4

Riff 5
G|---------------------------------------------------------------------------|
D|---------------------------------------------------------------------------|
A|6666666666666--------------------------------------------------------------| Repeat
E|------------------------------------------------------------------- x12----|

Riff 2
F|--------------------------------------------------------------------------|
C|--------------------------------------------------------------------------|
G|--2-3---2-3-----2-3------35---2-3---2-3-----3-2------3-5-----------------|
C|4-----4-----7-4------7-6-----4-----4-----7-4------7-6---------------------|

Riff 3
F|--------------------------------------------------------------------------|
C|--------------------------------------------------------------------------|
G|--2-3---2-3-----2-3-------------------------------------------------------|
C|4-----4-----7-4--------11-12-9-11-7-9-6-7---------------------------------|

Riff 5
F|---------------------------------------------------------------------------|
C|---------------------------------------------------------------------------|
G|6666666666666--------------------------------------------------------------| Repeat
C|---------------------------------------------------------------------------| x4

Riff 1
F|---------------------------------------------------------------------------|
C|---------------------------------------------------------------------------|
G|66666-66666-66666-6666444422222-22222-11111111-44444444--------------------| Repeat
C|---------------------------------------------------------------------------| x4

Riff 5
F|---------------------------------------------------------------------------|
C|---------------------------------------------------------------------------|
G|6666666666666--------------------------------------------------------------| Repeat
C|---------------------------------------------------------------------------| x4


| /  slide up
| \  slide down
| h  hammer-on
| p  pull-off
| ~  vibrato
| +  harmonic
| x  Mute note
============================================================================