Seether - Breakdown Chords & Tabs

 

Breakdown Chords & Tabs

Seether Chords & Tabs

Version: 3 Type: Tab

Breakdown Tab

   
Seether  Breakdown
Track 3, Finding Beauty In Negative Spaces
Half step down (Eb Ab Db Gb Bb Eb)

Verse
eb|----------------------------------------------------------------|
Ab|----------------------------------------------------------------|
Db|-------------7-77-----------------------------------------------|
Gb|----9--7--5-55-55-5h7-7-5-4-4-4-4h5p4p0------------------------|
Bb|---10-9--7-77-77-7--------5------------------------------------|
Eb|----------------------------------------------------------------|

eb|----------------------------------------------------------------|
Ab|----------------------------------8p7---------------------------|
Db|-------------7-77----------7---7h8---9--------------------------|
Gb|----9--7--5-55-55-5h7-7-9---9----------------------------------|
Bb|---10-9--7-77-77-7---------------------------------------------|
Eb|----------------------------------------------------------------|

Guitar 2 (pre-chorus)
eb|---12-0-7-0-10-0-12-0-7-0-10-0-12-0-7-0-|-----------------------|
Ab|----------------------------------------|-repeat----------------|
Db|----------------------------------------|-four------------------|
Gb|----------------------------------------|-times-----------------|
Bb|----------------------------------------|-----------------------|
Eb|----------------------------------------|-----------------------|

Chorus
eb|--------3-------------------------------------------------------|
Ab|--------3------------repeat-------------------------------------|
Db|---5-55-5--9-99-9------as--------7----5-------------------------|
Gb|---5-55-5--9-99-9---required-----7----5-------------------------|
Bb|---3-33-3--7-77-7----------------7----5-------------------------|
Eb|---3-33-3--7-77-7----------------5----3-------------------------|
[ Tab from: https://www.guitartabs.cc/tabs/s/seether/breakdown_tab_ver_3.html ]
Picking (post-chorus)
eb|----------------------------------------------------------------|
Ab|----------------------------------------------------------------|
Db|-----11h12p11------11h12p11------11h12p11h12-/14-12-11----------|
Gb|-------------112-9----------12-9------------------------12------|
Bb|----------------------------------------------------------12----|
Eb|----------------------------------------------------------------|

Solo
eb|----------------------------------------------------------------|
Ab|----------------------------------------------------------------|
Db|-----11h12p11------11h12p11------11h12p11h12-/14-12-11----------|
Gb|-------------112-9----------12-9------------------------12------|
Bb|----------------------------------------------------------12----|
Eb|----------------------------------------------------------------|

eb|----------------------------------------------------------------|
Ab|----------------------------------------------------------------|
Db|-----11h12p11------11h12p11------11h12p11h12-/14----------------|
Gb|-------------12-9----------12-9---------------------------------|
Bb|----------------------------------------------------------------|
Eb|----------------------------------------------------------------|

eb|---12-10--------------------------------------------------------|
Ab|---------~12-10-12-10-12----------------------------------------|
Db|----------------------------------------------------------------|
Gb|----------------------------------------------------------------|
Bb|----------------------------------------------------------------|
Eb|----------------------------------------------------------------|


Final chorus
eb|----------------------------------------------------------------|
Ab|-------------repeat---------------------------------------------|
Db|---12---2------as--------7-5-------or-----7-17------------------|
Gb|---12---2---required-----7-5--------------7-17------------------|
Bb|---10---2----------------7-5--------------7-17------------------|
Eb|---8----0----------------5-3--------------5-15------------------|