Scabs - Hard Times Chords & Tabs

 

Hard Times Chords & Tabs

Scabs Chords & Tabs

Version: 1 Type: Bass Tab

Hard Times Bass Tab

The Scabs  Hard Times
by rik_verpoorten@hotmail.com

main riff

G |----------------------------------|
D |----------------------------------|
A |-----0h3-5--3--------0h2-3-2-0----|
E |-3--3----------3-1--1----------0--|

G |----------------------------------|
D |----------------------------------|
A |-----0h3--5--3-----0-5-3--3-0h2---|
E |-3--3----------3-1----------------|

Other riff

G |-----------------------------------|
D |-----------------------------------|
A |-0--0h2h3-7--5-3-----0h2-5-3-2-----|
E |-----------------3--3----------3---|
[ Tab from: https://www.guitartabs.cc/tabs/s/scabs/hard_times_btab.html ]
G |---------------------------------------------------|
D |---------------------------------------------------|
A |-0--0h2h3-7--5-3-----------------5-5-5-5-3-3-2-2---|
E |-----------------3-3-3-3-1-1-0-0-------------------|


chorus

G |-------------------------------------|
D |-------------------------------------| 3x
A |-0-0-------------------0-3-5-3-2-----|
E |------3-2-0-0--1-2-3-3-----------3---|

G |----------------------------|
D |----------------------------|
A |-0-0------------------------|
E |------3-2-0-0--1-2-3--------|

Rest

Outro

G |--------------------------------------------|
D |--------------------------------------------|
A |-10----9----8----7----10----9----8-7-5-3----|
E |--------------------------------------------|