Saosin - Bury Your Head Chords & Tabs

 

Bury Your Head Chords & Tabs

Saosin Chords & Tabs

Version: 1 Type: Bass Tab

Bury Your Head Bass Tab

Saosin
Bury your head
tabbed by basspunk709

The number of notes might not be right but the notes are so listen to the song if you 
figure it out.
If you can figure it out listen to the song anyway cause i said so.
its really easy.

Intro
G |-------------------------------------------|
D |-------------------------------------------|
A |--------------7777777------------444444202-|
E |---4--444444----------0-000000-------------|

G |-------------------------------------------|
D |-------------------------------------------|
A |--------------7777777------------444444202-|
E |---4--444444----------2-222222-------------|

Verse (X2)
G |----------------------------------------------------------------|
D |----------------------------------------------------------------|
A |-5-7-9-9-9-9-9-9-9-9-444--4-4-4-4-4/7777-------777--7-7-75-5-5--|
E |------------------------------------------7777------------------|

Pre-Chorus
G |-----------------------------------------------------------------------------|
D |-----------------------------------------------------------------------------|
A |------------------------------------4444444444444444-------------------------|
E |-0000000000000000-2222222222222222---------------------44444444-22222222-----|

[ Tab from: https://www.guitartabs.cc/tabs/s/saosin/bury_your_head_btab.html ]
Chorus (X2)
G |-------------------------------------------|
D |-------------------------------------------|
A |--------------7777777------------444444202-|
E |---4--444444----------0-000000-------------|

G |-------------------------------------------|
D |-------------------------------------------|
A |--------------7777777------------444444202-|
E |---4--444444----------2-222222-------------|


Verse 2 (X2)
G |--------------------------------------------------------------------|
D |--------------------------------------------------------------------|
A |---9-9---9---9---9---9----4---4---4--4--0---0---0---0---0-----------|
E |--------------------------------------------------------------------|

G |------------------------------|
D |------------------------------|
A |--7---7---7---\---5---5---5---|
E |------------------------------|

- Pre-Chorus 

Chorus 2 (X2)

Interlude
G |------------------------------------|
D |------------------------------------|
A |---9--99--99\---9-9---99--9\--------|
E |------------------------------------|

(X3)
G |------------------------------------------------------------------------------|
D |------------------------------------------------------------------------------|
A |--------------------4444444444444444------------------------------------------|
E|--4444444444444444----------------------7777777777777777-22222222-00000000-----|


- Chorus -

Outro
G |----------------------------------------------------|
D |----------------------------------------------------|
A |---------4444---------4p0---------------------------|
E |---0000---------0000-----------4r-------------------|