Running Wild - Black Demon Chords & Tabs

 

Black Demon Chords & Tabs

Running Wild Chords & Tabs

Version: 1 Type: Tab

Black Demon Tab

This tab wasn't made by me, but I thought it should be here anyway. Hope it's okay ;-)

Transcription by erikgotborn@hotmail.com (erik gotborn)


Black Demon

Taken from the album "Gates to Purgatory"

The song is played in ordinary E-tuning.

Some riffs are played with muted strings, and I havenít transcribed
how many times they play on each chord.


Riff 1
E ------------------------------------------------------|
B ------------------------------------------------------|
G ------------------------------------------------------|
D ------------------------------------------------------|
A ------4-----2-----0-x----------4-----2-----0---0-4--0-|
E --2-2---2-2---2-2---x--4~~-2-2---2-2---2-2---4--------|
    x x   x x   x x          x x   x x   x x
[ Tab from: https://www.guitartabs.cc/tabs/r/running_wild/black_demon_tab.html ]
Riff 2
E -------------------------------------------|
B -------------------------------------------|
G -------------------------------------------|
D -------2-------6--2-------2-------6-6--6-6-|
A --4----0--4----4--0--4----0--4----4-4--4-4-|
E --2-------2----------2-------2-------------|
    x       x          x       x

Riff 3
E ---------------------------------------------------------|
B ---------------------------------------------------------|
G -------------------------------------------------------1-|
D --2---6--2---4------2------6--2---6--2---4------2------2-|
A --0---4--0---2--4---0--4---4--0---4--0---2--4---0--4---2-|
E ----------------2------2--------------------2------2-----|

Riff 4
E -----------------------|
B -----------------------|
G -----------------------|
D -------2--6-------2----|
A --4----0--4--4----0--2-|
E --2----------2-------0-|

Riff 5
E --------|
B --------|
G --------|
D --4---2-|
A --2---0-|
E --------|

Riff 6
E ------------------------------------|
B ------------------------------------|
G ------------------------------------|
D -------4-2--------------------------|
A --4--------5-4-2-0--4---5-4-2---2---|
E --2-----------------2---------5---4-|
    x                 x

Riff 7
E ---------------|
B ---------------|
G ----------1----|
D --4---2---2----|
A --2---0---2--4-|
E -------------2-|