Roxette - Fingertips Chords & Tabs

 

Fingertips Chords & Tabs

Roxette Chords & Tabs

Version: 2 Type: Tab

Fingertips Tab

   
I have seen the chords for this song but have not seen the solo so here it is. I have 
included some of the verse licks and riffs.

 FINGERTIPS SOLO
e|-----------------------------------------------------------------|
B|-----------------------------------------------------------------|
G|-----------------------------------------------------------------|
D|-----------8--10-8-----12--12-12-12--11-(10-9?)-12--14--16---14--|
A|-----------------------------------------------------------------|
E|-----------------------------------------------------------------|

e|-----------------------------------------------------------------|
B|-----------------------------------------------------------------|
G|--------12-12--11--9-9-99h11p9--12-12-12-12-11--9--12-14-16-19--|
D|-----------------------------------------------------------------|
A|-----------------------------------------------------------------|
E|-----------------------------------------------------------------|

e|-----------------------------------------------------------------------------------|
B|-----------------------------------------------------------------------------------|
G|-----------------------------------------------------------------------------------|
D|---------21--17--21----------------------------------------------------------------|
A|-----------------------------------------------------------------------------------|
E|-----------------------------------------------------------------------------------|


e|---------------------------------------------------------------------------|
B|---------------------------------------------------------------------------|
G|---------------------------------------------------------------------------|
D|---------------------------------------------------------------------------|
A|---------------------------------------------------------------------------|
E|---------------------------------------------------------------------------|

[ Tab from: https://www.guitartabs.cc/tabs/r/roxette/fingertips_tab_ver_2.html ]
Verse  lick
e|---------------------------------------------------------------------------------------|
B|---------------------------------------------------------------------------------------|
G|---------------------------------------------------------------------------------------|
D|----------12--14--12-9/13--------------------------------------------------------------|
A|---------------------------------------------------------------------------------------|
E|---------------------------------------------------------------------------------------|
                            D          a         e
e|-------------------------2---2----2--2-------------------------------------------------|
B|-------------------------3---3----2--2-------------------------------------------------|
G|--------9--1214b--------2---2----2--2--------1--1-------------------------------------|
D|----------------------------------------------2--2-------------------------------------|
A|----------------------------------------------2--2-------------------------------------|
E|---------------------------------------------------------------------------------------|

                                        D       a     e
e|----------------------------------------------------------|
B|-------------------------------------2-2------------------|    half bend
G|---------11--11--11-11---10--9--7----3-3----2-2------1-1--|
D|-------------------------------------2-2----2-2------2-2--|
A|--------------------------------------------2-2------2-2--|
E|----------------------------------------------------------|

e|---------------------------------------------2---2------------------|
B|---------------------------------------------3---3-----2---2--------|     half bend
G|--------11--11--11--11-10--9--7---12b--------2---2-----2---2--------|
D|-------------------------------------------------------2---2--1--1--|
A|--------------------------------------------------------------2--2--|
E|--------------------------------------------------------------2--2--|

e|---------------------------------------|
B|---------------------------------------|      half bend
G|-----------11--11--11---11---10--9--7--|
D|---------------------------------------|
A|---------------------------------------|
E|---------------------------------------|