Rolling Stones - Honky Tonk Women Chords & Tabs

 

Honky Tonk Women Chords & Tabs

Rolling Stones Chords & Tabs

Version: 4 Type: Tab

Honky Tonk Women Tab

   
____________________________________________________________________________
                      Honky Tonk Women - Rolling Stones
____________________________________________________________________________

Tabbed by: \,.robbie.,/
Email: robbie_sinclair@hotmail.co.uk

Tuning:(e) (a) (d) (g)  (b) (e)
        d   g   d   g    b   d   open g  (Keith Richads took of bottom e)

|b  = bend
|\  = slide down
|/  = slide up
|h  = hammer on
|p  = pull off
|^  = shake

   Intro          g
e|-----------------------------------------------------0----0---0---0---0---|
B|--------------------------------------------------------------------------|
G|---DRUMS---------0-------0---0---0------0---0---0----2b4--2b4-0---2---0---|
D|-----------------0-------0---0---0------0---0---0-------------------------|
A|-----------------0-------0---0---0------0---0---0-------------------------|
E|--------------------------------------------------------------------------|

                                   Verse
                                   g
e|-----0--------0--0--0--0--0--0--|-----------------------------------------|
B|--------------------3--3--3--3--|-----------------------------------------|
G|---2/4-\-2----0-----0--2--0--0--|------------0---0---------0---------0----|
D|-----------------2-----------0--|------------0---0---------0--------------|
A|--------------------------------|------------0---0---------0---2/4--------|
E|--------------------------------|-----------------------------------------|

   C                                     g                          a
e|---------------------------5-\-3---0--------------------------------------|
B|-5-------6---6p5-----------------------/3------3-3-3--------------2---3---|
G|-5-------5---5-------------0---0---0----0------0---0--------------2---2---|
D|-5-------5---5-------------------------/3--------2----------------2---4---|
A|-5------------------------------------------------------------------------|
E|--------------------------------------------------------------------------|

                  d                                    g
e|--------------------------------------------------------------------------|
B|----3p2---------7-------8--8p7--------------------------------------------|
G|----2-----------7-------7--7----------------0--------------------0---0----|
D|----4p2---------7-------9--9p7-----------------------------------0---0----|
A|----------------7-------------------0---/4------4\2p0------------0---0----|
E|--------------------------------------------------------------------------|

                          C                                   g
e|-----------------------------------------------5/3------------------------|
B|--------------------------------------6p5---------------0--3--------------|
G|----------------0-------5-------------5--------0-----0--0--0--------------|
D|--------------------5---5-------------5--------------0--------------------|
A|-----0-----2/4------5---5-------------------------------------------------|
E|--------------------------------------------------------------------------|

                     d            g
e|----------------------------------------------------------------|
B|--------------------7---7-7-7-----------------------------------|
G|-------------0------7---7-7-7-----------------------------------|
D|--------------------7---7-7-7---0-----0--2--0---0---2---0---2---|
A|---0-----/4---------7---7-7-7---0-----0--0--0---0---0---0---0---|
E|----------------------------------------------------------------|
[ Tab from: https://www.guitartabs.cc/tabs/r/rolling_stones/honky_tonk_women_tab_ver_4.html ]
Chorus    part 1                       part 2    x2
  g                d                g
e|--------------------------------|----------------------|
B|--------------------------------|----------------------|
G|--0---0---0---0---7---7---7---7-|-12---13-12----13--12-|
D|--0---2---0---2---7---9---7---9-|-12---14-12----14--12-|
A|--0-0-0-0-0-0-0-0-7-7-7-7-7-7-7-|-12---12-12----12--12-|
E|--------------------------------|----------------------|

Part 1

  1st time through do this:                  2nd time do this:
   g                                          g
e|----0----0---0--0--0--0--0--0--0--0--0--|---0--0--0------0--0--|
B|----------------------------------------|------------x3--------|
G|---/4----4--\2--0-----0-/4--2--0-----0--|---4--2--0------0--0--|
D|-------------------2--------------2-----|----------------------|
A|----------------------------------------|----------------------|
E|----------------------------------------|----------------------|


Solo:
  g                                     C
e|---------------------------------------------------10---------------------|
B|------8---10b12b10-8-8-------8-8---8------8------8-----------11--------11-|
G|--7-7---7------------------9----------7/9----7/9-------10b12-----10b12----|
D|--------------------------------------------------------------------------|
A|--------------------------------------------------------------------------|
E|--------------------------------------------------------------------------|


e|--------------------------------------------------------------------------|
B|---------------------------------5----5--5--5--5---------------10---------|
G|--5b7b5-----3------3-------------4b6--4--2--4--2--------9b11------9b11----|
D|---------------5-----5--3--5----------------------------------------------|
A|--------------------------------------------------------------------------|
E|--------------------------------------------------------------------------|


e|---------------------------------------------------------------|
B|--10-----------------------------------------------------------|
G|------11b9p7-----7---------1214b16----12----12-14-12-12-------|
D|-------------9----------------------------14-------------------|
A|---------------------------------------------------------------|
E|---------------------------------------------------------------|

                          C                                shake
e|------------------------------------------------------------------|
B|-----------------------------8------------8-----------------------|
G|--14---12-14b16--b14----7/9---------7b9-------9b7p5----5^^^^^^^^--|
D|----------------------------------------------------7-------------|
A|------------------------------------------------------------------|
E|------------------------------------------------------------------|

   g                    d                             g
e|----------------------------------------------------------14-------------|
B|--8-------------------10--10b12b10-8---10b12b10-8-8----------15-------15-|
G|-----9--7----------------------------9--------------14b16-------14b16----|
D|-----------7b8---5-------------------------------------------------------|
A|-------------------------------------------------------------------------|
E|-------------------------------------------------------------------------|

Chorus part 1

   Part 3 x2
  g
e|--------------|
B|-12-12-13-12--|
G|-12-12-14-12--|
D|-12-12--------|
A|--------------|
E|--------------|

Chorous Part 1
        Part 3
        Part 1
        Part 3
        Part 1

Outro:
   g
e|--0--0--0--0--0--0--0--0--0--0---0--|
B|---------------------------------3--|
G|-/4--2--0-4/2-0-----0--2b4---0---0--|
D|-----------------2---------------0--|
A|---------------------------------0--|
E|------------------------------------|

Enjoy