Rise Against - Like The Angel Chords & Tabs

 

Like The Angel Chords & Tabs

Rise Against Chords & Tabs

Version: 4 Type: Bass Tab

Like The Angel Bass Tab

Song: LIKE THE ANGEL 
Album: REVOLUTIONS PER MINUTE
Artist: RISE AGAINST
BASS TAB
INTRO

Gb|-7--------7--------7-----|-9--------9--------9-----|-11-------11-------11----|
Db|----9-9-9----9-9-9----9--|----7-7-7----7-7-7----7--|----121212---121212---12-|
Ab|-------------------------|-------------------------|-------------------------|
Eb|-------------------------|-------------------------|-------------------------|
    1  +  2  +  3  +  4  +    1  +  2  +  3  +  4  +    1  +  2  +  3  +  4  +    

Gb|-12-------12-------12----|-11-------11-------11----|-9--------9--------9-----|
Db|----121212---121212---12-|----121212---121212---12-|----111111---111111---11-|
Ab|-------------------------|-------------------------|-------------------------|
Eb|-------------------------|-------------------------|-------------------------|
    1  +  2  +  3  +  4  +    1  +  2  +  3  +  4  +    1  +  2  +  3  +  4  +    

Gb|-11----------------------|-------------------------|
Db|-9-----------------------|-------------------------|
Ab|-------------------------|-------------------------|
Eb|-------------------------|-------------------------|
    1  +  2  +  3  +  4  +    1  +  2  +  3  +  4  +       

VERSE

Gb|-------------------------|-------------------------|-------------------------|
Db|-------------------------|-------------------------|-------------------------|
Ab|-------------------------|-------------------------|-5-----5--5--5--5--5--5--|
Eb|-7-----7--7--7--7--7--7--|-5-----5--5--5--5--5--5--|-------------------------|
    1  +  2  +  3  +  4  +    1  +  2  +  3  +  4  +    1  +  2  +  3  +  4  +

Gb|-------------------------|-------------------------|-------------------------|
Db|-------------------------|-------------------------|-------------------------|
Ab|-------------------------|-5-----5--5--5--5--5--5--|-4--4--4--4--4--4--4--4--|
Eb|-3--3--3--3--3--3--3--3--|-------------------------|-------------------------|
    1  +  2  +  3  +  4  +    1  +  2  +  3  +  4  +    1  +  2  +  3  +  4  +

Gb|-------------------------|-------------------------|
Db|-------------------------|-------------------------|
Ab|-------------------------|-------------------------|
Eb|-7-----7--7--5--5--5--7--|----7--7--7--7--7--7--7--|
    1  +  2  +  3  +  4  +    1  +  2  +  3  +  4  +    

Gb|-------------------------|-------------------------|-------------------------|
Db|-------------------------|-------------------------|-------------------------|
Ab|-------------------------|-------------------------|-5-----5--5--5--5--5--5--|
Eb|-7-----7--7--7--7--7--7--|-5-----5--5--5--5--5--5--|-------------------------|
    1  +  2  +  3  +  4  +    1  +  2  +  3  +  4  +    1  +  2  +  3  +  4  +

Gb|-------------------------|-------------------------|-------------------------|
Db|-------------------------|-------------------------|-------------------------|
Ab|-------------------------|-5-----5--5--5--5--5--5--|-4--4--4--4--4--4--4--4--|
Eb|-3--3--3--3--3--3--3--3--|-------------------------|-------------------------|
    1  +  2  +  3  +  4  +    1  +  2  +  3  +  4  +    1  +  2  +  3  +  4  +

Gb|-------------------------|-------------------------|
Db|-------------------------|-------------------------|
Ab|-2--2--2--2--2--2--2--2//|/14-14-14-14-14-14-14-14-|
Eb|-------------------------|-------------------------|
    1  +  2  +  3  +  4  +    1  +  2  +  3  +  4  +    

CHORUS

Gb|-------------------------|-------------------------|-------------------------|
Db|-5-----5--5--5--5--5--5--|-4-----4--4--4--4--4--4--|-7-----7--7--7--7--7--7--|
Ab|-------------------------|-------------------------|-------------------------|
Eb|-------------------------|-------------------------|-------------------------|
    1  +  2  +  3  +  4  +    1  +  2  +  3  +  4  +    1  +  2  +  3  +  4  +

Gb|-4--4--4--4--------------|-------------------------|-------------------------|
Db|-------------7--7--7--7--|-5-----5--5--5--5--5--5--|-7-----7--7--7--7--7--7--|
Ab|-------------------------|-------------------------|-------------------------|
Eb|-------------------------|-------------------------|-------------------------|
    1  +  2  +  3  +  4  +    1  +  2  +  3  +  4  +    1  +  2  +  3  +  4  +

Gb|-4-----4--4--4--4--4--4--|-4--4--4--4--4-----------|
Db|-------------------------|----------------7--4-----|
Ab|-------------------------|-------------------------|
Eb|-------------------------|-------------------------|
    1  +  2  +  3  +  4  +    1  +  2  +  3  +  4  +    

Gb|-------------------------|-------------------------|-4-----4--4--4--4--4--4--|
Db|-5-----5--5--5--5--5--5--|-7-----7--7--7--7--7--7--|-------------------------|
Ab|-------------------------|-------------------------|-------------------------|
Eb|-------------------------|-------------------------|-------------------------|
    1  +  2  +  3  +  4  +    1  +  2  +  3  +  4  +    1  +  2  +  3  +  4  +

Gb|-4-----4--4--6-----6-6--|-7-----7--7--7--7-7-7--|-6-----6-----------------|
Db|-------------------------|-------------------------|-------------7-----7-----|
Ab|-------------------------|-------------------------|-------------------------|
Eb|-------------------------|-------------------------|-------------------------|
    1  +  2  +  3  +  4  +    1  +  2  +  3  +  4  +    1  +  2  +  3  +  4  +

Gb|-4-----4--4--4--4--4--4--|-4--4--4--4--4--4--4--4--|
Db|-------------------------|-------------------------|
Ab|-------------------------|-------------------------|
Eb|-------------------------|-------------------------|
    1  +  2  +  3  +  4  +    1  +  2  +  3  +  4  +  

VERSE


Gb|-------------------------|-------------------------|-------------------------|
Db|-------------------------|-------------------------|-------------------------|
Ab|-------------------------|-------------------------|-5-----5--5--5--5--5--5--|
Eb|-7-----7--7--7--7--7--7--|-5-----5--5--5--5--5--5--|-------------------------|
    1  +  2  +  3  +  4  +    1  +  2  +  3  +  4  +    1  +  2  +  3  +  4  +

Gb|-------------------------|-------------------------|-------------------------|
Db|-------------------------|-------------------------|-------------------------|
Ab|-------------------------|-5-----5--5--5--5--5--5--|-4--4--4--4--4--4--4--4--|
Eb|-3--3--3--3--3--3--3--3--|-------------------------|-------------------------|
    1  +  2  +  3  +  4  +    1  +  2  +  3  +  4  +    1  +  2  +  3  +  4  +

Gb|-------------------------|-------------------------|
Db|-------------------------|-------------------------|
Ab|-------------------------|-------------------------|
Eb|-7-----7--7--5--5--5--7--|----7--7--7--7--7--7--7--|
    1  +  2  +  3  +  4  +    1  +  2  +  3  +  4  +    

Gb|-------------------------|-------------------------|-------------------------|
Db|-------------------------|-------------------------|-------------------------|
Ab|-------------------------|-------------------------|-5-----5--5--5--5--5--5--|
Eb|-7-----7--7--7--7--7--7--|-5-----5--5--5--5--5--5--|-------------------------|
    1  +  2  +  3  +  4  +    1  +  2  +  3  +  4  +    1  +  2  +  3  +  4  +

Gb|-------------------------|-------------------------|-------------------------|
Db|-------------------------|-------------------------|-------------------------|
Ab|-------------------------|-5-----5--5--5--5--5--5--|-4--4--4--4--4--4--4--4--|
Eb|-3--3--3--3--3--3--3--3--|-------------------------|-------------------------|
    1  +  2  +  3  +  4  +    1  +  2  +  3  +  4  +    1  +  2  +  3  +  4  +

Gb|-------------------------|-------------------------|
Db|-------------------------|-------------------------|
Ab|-2--2--2--2--2--2--2--2//|/14-14-14-14-14-14-14-14-|
Eb|-------------------------|-------------------------|
    1  +  2  +  3  +  4  +    1  +  2  +  3  +  4  +    

CHORUS


Gb|-------------------------|-------------------------|-------------------------|
Db|-5-----5--5--5--5--5--5--|-4-----4--4--4--4--4--4--|-7-----7--7--7--7--7--7--|
Ab|-------------------------|-------------------------|-------------------------|
Eb|-------------------------|-------------------------|-------------------------|
    1  +  2  +  3  +  4  +    1  +  2  +  3  +  4  +    1  +  2  +  3  +  4  +

Gb|-4--4--4--4--------------|-------------------------|-------------------------|
Db|-------------7--7--7--7--|-5-----5--5--5--5--5--5--|-7-----7--7--7--7--7--7--|
Ab|-------------------------|-------------------------|-------------------------|
Eb|-------------------------|-------------------------|-------------------------|
    1  +  2  +  3  +  4  +    1  +  2  +  3  +  4  +    1  +  2  +  3  +  4  +
[ Tab from: https://www.guitartabs.cc/tabs/r/rise_against/like_the_angel_btab_ver_4.html ]
Gb|-4-----4--4--4--4--4--4--|-4--4--4--4--4-----------|
Db|-------------------------|----------------7--4-----|
Ab|-------------------------|-------------------------|
Eb|-------------------------|-------------------------|
    1  +  2  +  3  +  4  +    1  +  2  +  3  +  4  +    

Gb|-------------------------|-------------------------|-4-----4--4--4--4--4--4--|
Db|-5-----5--5--5--5--5--5--|-7-----7--7--7--7--7--7--|-------------------------|
Ab|-------------------------|-------------------------|-------------------------|
Eb|-------------------------|-------------------------|-------------------------|
    1  +  2  +  3  +  4  +    1  +  2  +  3  +  4  +    1  +  2  +  3  +  4  +

Gb|-4-----4--4--6-----6-6--|-7-----7--7--7--7-7-7--|-6-----6-----------------|
Db|-------------------------|-------------------------|-------------7-----7-----|
Ab|-------------------------|-------------------------|-------------------------|
Eb|-------------------------|-------------------------|-------------------------|
    1  +  2  +  3  +  4  +    1  +  2  +  3  +  4  +    1  +  2  +  3  +  4  +

Gb|-4-----4--4--4--4--4--4--|-4--4--4--4--4--4--4--4--|
Db|-------------------------|-------------------------|
Ab|-------------------------|-------------------------|
Eb|-------------------------|-------------------------|
    1  +  2  +  3  +  4  +    1  +  2  +  3  +  4  +  

GUITAR SOLO

Gb|-------------------------|-------------------------|-------------------------|
Db|-------------------------|-------------------------|-------------------------|
Ab|-------------------------|-------------------------|-5-----5--5--5--7--5-----|
Eb|-7-----7--7--7--7--7--3--|----3--3--3--3--3--3--3--|----------------------5--|
    1  +  2  +  3  +  4  +    1  +  2  +  3  +  4  +    1  +  2  +  3  +  4  +

Gb|-------------------------|-------------------------|-------------------------|
Db|-------------------------|-------------------------|-------------------------|
Ab|-------4--4--5--5--7--7--|-------------------------|-------------------------|
Eb|----5--------------------|-7-----7--7--7--7--7--3--|----3--3--3--3--3--3--3--|
    1  +  2  +  3  +  4  +    1  +  2  +  3  +  4  +    1  +  2  +  3  +  4  +

Gb|-------------------------|-------------------------|
Db|-------------------------|-------------------------|
Ab|-------------------------|-------------------------|
Eb|-5-----5--5--5--5--5--5--|-5--5--5--5--5--5--5--5--|
    1  +  2  +  3  +  4  +    1  +  2  +  3  +  4  +  

Gb|-------------------------|-------------------------|-------------------------|
Db|-------------------------|-------------------------|-------------------------|
Ab|-------------------------|-------------------------|-5-----5--5--5--7--5-----|
Eb|-7-----7--7--7--7--7--3--|----3--3--3--3--3--3--3--|----------------------5--|
    1  +  2  +  3  +  4  +    1  +  2  +  3  +  4  +    1  +  2  +  3  +  4  +

Gb|-------------------------|-------------------------|-------------------------|
Db|-------------------------|-------------------------|-------------------------|
Ab|-------4--4--5--5--7--7--|-------------------------|-------------------------|
Eb|----5--------------------|-7-----7--7--7--7--7--3--|----3--3--3--3--3--3--3--|
    1  +  2  +  3  +  4  +    1  +  2  +  3  +  4  +    1  +  2  +  3  +  4  +

Gb|-------------------------|-------------------------|
Db|-------------------------|-------------------------|
Ab|-------------------------|-------------------------|
Eb|-5-----5--5--5--5--5--5--|-5--5--5--5--5--5--5--5--|
    1  +  2  +  3  +  4  +    1  +  2  +  3  +  4  +  


VERSE


Gb|-------------------------|-------------------------|-------------------------|
Db|-------------------------|-------------------------|-------------------------|
Ab|-------------------------|-------------------------|-5-----5--5--5--5--5--5--|
Eb|-7-----7--7--7--7--7--7--|-5-----5--5--5--5--5--5--|-------------------------|
    1  +  2  +  3  +  4  +    1  +  2  +  3  +  4  +    1  +  2  +  3  +  4  +

Gb|-------------------------|-------------------------|-------------------------|
Db|-------------------------|-------------------------|-------------------------|
Ab|-------------------------|-5-----5--5--5--5--5--5--|-4--4--4--4--4--4--4--4--|
Eb|-3--3--3--3--3--3--3--3--|-------------------------|-------------------------|
    1  +  2  +  3  +  4  +    1  +  2  +  3  +  4  +    1  +  2  +  3  +  4  +

Gb|-------------------------|-------------------------|
Db|-------------------------|-------------------------|
Ab|-------------------------|-------------------------|
Eb|-7-----7--7--5--5--5--7--|----7--7--7--7--7--7--7--|
    1  +  2  +  3  +  4  +    1  +  2  +  3  +  4  +    

Gb|-------------------------|-------------------------|-------------------------|
Db|-------------------------|-------------------------|-------------------------|
Ab|-------------------------|-------------------------|-5-----5--5--5--5--5--5--|
Eb|-7-----7--7--7--7--7--7--|-5-----5--5--5--5--5--5--|-------------------------|
    1  +  2  +  3  +  4  +    1  +  2  +  3  +  4  +    1  +  2  +  3  +  4  +

Gb|-------------------------|-------------------------|-------------------------|
Db|-------------------------|-------------------------|-------------------------|
Ab|-------------------------|-5-----5--5--5--5--5--5--|-4--4--4--4--4--4--4--4--|
Eb|-3--3--3--3--3--3--3--3--|-------------------------|-------------------------|
    1  +  2  +  3  +  4  +    1  +  2  +  3  +  4  +    1  +  2  +  3  +  4  +

Gb|-------------------------|-------------------------|
Db|-------------------------|-------------------------|
Ab|-2--2--2--2--2--2--2--2//|/14-14-14-14-14-14-14-14-|
Eb|-------------------------|-------------------------|
    1  +  2  +  3  +  4  +    1  +  2  +  3  +  4  +    

CHORUS

Gb|-------------------------|-------------------------|-------------------------|
Db|-5-----5--5--5--5--5--5--|-4-----4--4--4--4--4--4--|-7-----7--7--7--7--7--7--|
Ab|-------------------------|-------------------------|-------------------------|
Eb|-------------------------|-------------------------|-------------------------|
    1  +  2  +  3  +  4  +    1  +  2  +  3  +  4  +    1  +  2  +  3  +  4  +

Gb|-4--4--4--4--------------|-------------------------|-------------------------|
Db|-------------7--7--7--7--|-5-----5--5--5--5--5--5--|-7-----7--7--7--7--7--7--|
Ab|-------------------------|-------------------------|-------------------------|
Eb|-------------------------|-------------------------|-------------------------|
    1  +  2  +  3  +  4  +    1  +  2  +  3  +  4  +    1  +  2  +  3  +  4  +

Gb|-4-----4--4--4--4--4--4--|-4--4--4--4--4-----------|
Db|-------------------------|----------------7--4-----|
Ab|-------------------------|-------------------------|
Eb|-------------------------|-------------------------|
    1  +  2  +  3  +  4  +    1  +  2  +  3  +  4  +    

Gb|-------------------------|-------------------------|-4-----4--4--4--4--4--4--|
Db|-5-----5--5--5--5--5--5--|-7-----7--7--7--7--7--7--|-------------------------|
Ab|-------------------------|-------------------------|-------------------------|
Eb|-------------------------|-------------------------|-------------------------|
    1  +  2  +  3  +  4  +    1  +  2  +  3  +  4  +    1  +  2  +  3  +  4  +

Gb|-4-----4--4--6-----6-6--|-7-----7--7--7--7-7-7--|-6-----6-----------------|
Db|-------------------------|-------------------------|-------------7-----7-----|
Ab|-------------------------|-------------------------|-------------------------|
Eb|-------------------------|-------------------------|-------------------------|
    1  +  2  +  3  +  4  +    1  +  2  +  3  +  4  +    1  +  2  +  3  +  4  +

Gb|-4-----4--4--4--4--4--4--|-4--4--4--4--4--4--4--4--|
Db|-------------------------|-------------------------|
Ab|-------------------------|-------------------------|
Eb|-------------------------|-------------------------|
    1  +  2  +  3  +  4  +    1  +  2  +  3  +  4  +  


OUTRO

Gb|-7--------7--------7-----|-9--------9--------9-----|-11-------11-------11----|
Db|----9-9-9----9-9-9----9--|----7-7-7----7-7-7----7--|----121212---121212---12-|
Ab|-------------------------|-------------------------|-------------------------|
Eb|-------------------------|-------------------------|-------------------------|
    1  +  2  +  3  +  4  +    1  +  2  +  3  +  4  +    1  +  2  +  3  +  4  +    

Gb|-12-------12-------12----|-11-------11-------11----|-9--------9--------9-----|
Db|----121212---121212---12-|----121212---121212---12-|----111111---111111---11-|
Ab|-------------------------|-------------------------|-------------------------|
Eb|-------------------------|-------------------------|-------------------------|
    1  +  2  +  3  +  4  +    1  +  2  +  3  +  4  +    1  +  2  +  3  +  4  +    

Gb|-11----------------------|-------------------------|
Db|-9-----------------------|-------------------------|
Ab|-------------------------|-------------------------|
Eb|-------------------------|-------------------------|
    1  +  2  +  3  +  4  +    1  +  2  +  3  +  4  +